ISO-10303-21;
HEADER;
FILE_DESCRIPTION(('STEP AP214'),'1');
FILE_NAME('cctmp_577DC656-4FB1-42A6-83CC-DB2DEFBF5395_2025_03_17_10_13_19_0559_6800..stp','2025-03-17T09:13:19',('Bosch Rexroth AG'),('CADClick - www.CADClick.com'),'Spatial InterOp 3D',' ','unknown authorization - (Healing Option Enabled)');
FILE_SCHEMA(('AUTOMOTIVE_DESIGN'));
ENDSEC;
DATA;
#1=MECHANICAL_DESIGN_GEOMETRIC_PRESENTATION_REPRESENTATION(' ',(#10,#11,#12,#13,#14,#15,#16,#17,#18,#19,#20,#21,#22,#23,#24,#25,#26,#27),#6);
#2=PRODUCT_DEFINITION_CONTEXT('',#28,'design');
#3=APPLICATION_PROTOCOL_DEFINITION('INTERNATIONAL STANDARD','automotive_design',1994,#28);
#4=PRODUCT_CATEGORY_RELATIONSHIP('NONE','NONE',#29,#30);
#5=SHAPE_DEFINITION_REPRESENTATION(#31,#32);
#6= (GEOMETRIC_REPRESENTATION_CONTEXT(3)GLOBAL_UNCERTAINTY_ASSIGNED_CONTEXT((#35))GLOBAL_UNIT_ASSIGNED_CONTEXT((#37,#38,#39))REPRESENTATION_CONTEXT('NONE','WORKSPACE'));
#10=STYLED_ITEM('',(#41),#42);
#11=STYLED_ITEM('',(#43),#44);
#12=STYLED_ITEM('',(#45),#46);
#13=STYLED_ITEM('',(#47),#48);
#14=STYLED_ITEM('',(#49),#50);
#15=STYLED_ITEM('',(#51),#52);
#16=STYLED_ITEM('',(#53),#54);
#17=STYLED_ITEM('',(#55),#56);
#18=STYLED_ITEM('',(#57),#58);
#19=STYLED_ITEM('',(#59),#60);
#20=STYLED_ITEM('',(#61),#62);
#21=STYLED_ITEM('',(#63),#64);
#22=STYLED_ITEM('',(#65),#66);
#23=STYLED_ITEM('',(#67),#68);
#24=STYLED_ITEM('',(#69),#70);
#25=STYLED_ITEM('',(#71),#72);
#26=STYLED_ITEM('',(#73),#74);
#27=STYLED_ITEM('',(#75),#76);
#28=APPLICATION_CONTEXT(' ');
#29=PRODUCT_CATEGORY('part','NONE');
#30=PRODUCT_RELATED_PRODUCT_CATEGORY('detail',' ',(#77));
#31=PRODUCT_DEFINITION_SHAPE('NONE','NONE',#78);
#32=ADVANCED_BREP_SHAPE_REPRESENTATION('2025_03_17_10_13_19_0543',(#76,#79),#6);
#35=UNCERTAINTY_MEASURE_WITH_UNIT(LENGTH_MEASURE(1.0E-06),#37,'','');
#37= (CONVERSION_BASED_UNIT('MILLIMETRE',#82)LENGTH_UNIT()NAMED_UNIT(#85));
#38= (NAMED_UNIT(#87)PLANE_ANGLE_UNIT()SI_UNIT($,.RADIAN.));
#39= (NAMED_UNIT(#87)SOLID_ANGLE_UNIT()SI_UNIT($,.STERADIAN.));
#41=PRESENTATION_STYLE_ASSIGNMENT((#93));
#42=ADVANCED_FACE('',(#94),#95,.F.);
#43=PRESENTATION_STYLE_ASSIGNMENT((#96));
#44=ADVANCED_FACE('',(#97),#98,.F.);
#45=PRESENTATION_STYLE_ASSIGNMENT((#99));
#46=ADVANCED_FACE('',(#100),#101,.T.);
#47=PRESENTATION_STYLE_ASSIGNMENT((#102));
#48=ADVANCED_FACE('',(#103),#104,.T.);
#49=PRESENTATION_STYLE_ASSIGNMENT((#105));
#50=ADVANCED_FACE('',(#106),#107,.T.);
#51=PRESENTATION_STYLE_ASSIGNMENT((#108));
#52=ADVANCED_FACE('',(#109),#110,.T.);
#53=PRESENTATION_STYLE_ASSIGNMENT((#111));
#54=ADVANCED_FACE('',(#112),#113,.T.);
#55=PRESENTATION_STYLE_ASSIGNMENT((#114));
#56=ADVANCED_FACE('',(#115),#116,.T.);
#57=PRESENTATION_STYLE_ASSIGNMENT((#117));
#58=ADVANCED_FACE('',(#118),#119,.T.);
#59=PRESENTATION_STYLE_ASSIGNMENT((#120));
#60=ADVANCED_FACE('',(#121),#122,.T.);
#61=PRESENTATION_STYLE_ASSIGNMENT((#123));
#62=ADVANCED_FACE('',(#124),#125,.T.);
#63=PRESENTATION_STYLE_ASSIGNMENT((#126));
#64=ADVANCED_FACE('',(#127),#128,.T.);
#65=PRESENTATION_STYLE_ASSIGNMENT((#129));
#66=ADVANCED_FACE('',(#130),#131,.T.);
#67=PRESENTATION_STYLE_ASSIGNMENT((#132));
#68=ADVANCED_FACE('',(#133),#134,.T.);
#69=PRESENTATION_STYLE_ASSIGNMENT((#135));
#70=ADVANCED_FACE('',(#136),#137,.T.);
#71=PRESENTATION_STYLE_ASSIGNMENT((#138));
#72=ADVANCED_FACE('',(#139,#140),#141,.T.);
#73=PRESENTATION_STYLE_ASSIGNMENT((#142));
#74=ADVANCED_FACE('',(#143,#144),#145,.F.);
#75=PRESENTATION_STYLE_ASSIGNMENT((#146));
#76=MANIFOLD_SOLID_BREP('2025_03_17_10_13_19_0543',#147);
#77=PRODUCT('2025_03_17_10_13_19_0543','2025_03_17_10_13_19_0543','PART-2025_03_17_10_13_19_0543-DESC',(#148));
#78=PRODUCT_DEFINITION('','NONE',#149,#2);
#79=AXIS2_PLACEMENT_3D('',#150,#151,#152);
#82=LENGTH_MEASURE_WITH_UNIT(LENGTH_MEASURE(1.0),#153);
#85=DIMENSIONAL_EXPONENTS(1.0,0.0,0.0,0.0,0.0,0.0,0.0);
#87=DIMENSIONAL_EXPONENTS(0.0,0.0,0.0,0.0,0.0,0.0,0.0);
#93=SURFACE_STYLE_USAGE(.BOTH.,#154);
#94=FACE_OUTER_BOUND('',#155,.T.);
#95=CYLINDRICAL_SURFACE('',#156,2.75);
#96=SURFACE_STYLE_USAGE(.BOTH.,#157);
#97=FACE_OUTER_BOUND('',#158,.T.);
#98=CYLINDRICAL_SURFACE('',#159,2.75);
#99=SURFACE_STYLE_USAGE(.BOTH.,#160);
#100=FACE_OUTER_BOUND('',#161,.T.);
#101=PLANE('',#162);
#102=SURFACE_STYLE_USAGE(.BOTH.,#163);
#103=FACE_OUTER_BOUND('',#164,.T.);
#104=PLANE('',#165);
#105=SURFACE_STYLE_USAGE(.BOTH.,#166);
#106=FACE_OUTER_BOUND('',#167,.T.);
#107=PLANE('',#168);
#108=SURFACE_STYLE_USAGE(.BOTH.,#169);
#109=FACE_OUTER_BOUND('',#170,.T.);
#110=PLANE('',#171);
#111=SURFACE_STYLE_USAGE(.BOTH.,#172);
#112=FACE_OUTER_BOUND('',#173,.T.);
#113=PLANE('',#174);
#114=SURFACE_STYLE_USAGE(.BOTH.,#175);
#115=FACE_OUTER_BOUND('',#176,.T.);
#116=CYLINDRICAL_SURFACE('',#177,17.0000000005849);
#117=SURFACE_STYLE_USAGE(.BOTH.,#178);
#118=FACE_OUTER_BOUND('',#179,.T.);
#119=PLANE('',#180);
#120=SURFACE_STYLE_USAGE(.BOTH.,#181);
#121=FACE_OUTER_BOUND('',#182,.T.);
#122=PLANE('',#183);
#123=SURFACE_STYLE_USAGE(.BOTH.,#184);
#124=FACE_OUTER_BOUND('',#185,.T.);
#125=PLANE('',#186);
#126=SURFACE_STYLE_USAGE(.BOTH.,#187);
#127=FACE_OUTER_BOUND('',#188,.T.);
#128=PLANE('',#189);
#129=SURFACE_STYLE_USAGE(.BOTH.,#190);
#130=FACE_OUTER_BOUND('',#191,.T.);
#131=PLANE('',#192);
#132=SURFACE_STYLE_USAGE(.BOTH.,#193);
#133=FACE_OUTER_BOUND('',#194,.T.);
#134=PLANE('',#195);
#135=SURFACE_STYLE_USAGE(.BOTH.,#196);
#136=FACE_OUTER_BOUND('',#197,.T.);
#137=PLANE('',#198);
#138=SURFACE_STYLE_USAGE(.BOTH.,#199);
#139=FACE_BOUND('',#200,.T.);
#140=FACE_OUTER_BOUND('',#201,.T.);
#141=PLANE('',#202);
#142=SURFACE_STYLE_USAGE(.BOTH.,#203);
#143=FACE_BOUND('',#204,.T.);
#144=FACE_OUTER_BOUND('',#205,.T.);
#145=PLANE('',#206);
#146=SURFACE_STYLE_USAGE(.BOTH.,#207);
#147=CLOSED_SHELL('',(#42,#44,#46,#48,#50,#52,#54,#56,#58,#60,#62,#64,#66,#68,#70,#72,#74));
#148=PRODUCT_CONTEXT('',#28,'mechanical');
#149=PRODUCT_DEFINITION_FORMATION_WITH_SPECIFIED_SOURCE(' ','NONE',#77,.NOT_KNOWN.);
#150=CARTESIAN_POINT('',(0.0,0.0,0.0));
#151=DIRECTION('',(0.0,0.0,1.0));
#152=DIRECTION('',(1.0,0.0,0.0));
#153= (NAMED_UNIT(#85)LENGTH_UNIT()SI_UNIT(.MILLI.,.METRE.));
#154=SURFACE_SIDE_STYLE('',(#209));
#155=EDGE_LOOP('',(#210,#211,#212,#213));
#156=AXIS2_PLACEMENT_3D('',#214,#215,#216);
#157=SURFACE_SIDE_STYLE('',(#217));
#158=EDGE_LOOP('',(#218,#219,#220,#221));
#159=AXIS2_PLACEMENT_3D('',#222,#223,#224);
#160=SURFACE_SIDE_STYLE('',(#225));
#161=EDGE_LOOP('',(#226,#227,#228,#229));
#162=AXIS2_PLACEMENT_3D('',#230,#231,#232);
#163=SURFACE_SIDE_STYLE('',(#233));
#164=EDGE_LOOP('',(#234,#235,#236,#237));
#165=AXIS2_PLACEMENT_3D('',#238,#239,#240);
#166=SURFACE_SIDE_STYLE('',(#241));
#167=EDGE_LOOP('',(#242,#243,#244,#245));
#168=AXIS2_PLACEMENT_3D('',#246,#247,#248);
#169=SURFACE_SIDE_STYLE('',(#249));
#170=EDGE_LOOP('',(#250,#251,#252,#253));
#171=AXIS2_PLACEMENT_3D('',#254,#255,#256);
#172=SURFACE_SIDE_STYLE('',(#257));
#173=EDGE_LOOP('',(#258,#259,#260,#261));
#174=AXIS2_PLACEMENT_3D('',#262,#263,#264);
#175=SURFACE_SIDE_STYLE('',(#265));
#176=EDGE_LOOP('',(#266,#267,#268,#269));
#177=AXIS2_PLACEMENT_3D('',#270,#271,#272);
#178=SURFACE_SIDE_STYLE('',(#273));
#179=EDGE_LOOP('',(#274,#275,#276,#277));
#180=AXIS2_PLACEMENT_3D('',#278,#279,#280);
#181=SURFACE_SIDE_STYLE('',(#281));
#182=EDGE_LOOP('',(#282,#283,#284,#285));
#183=AXIS2_PLACEMENT_3D('',#286,#287,#288);
#184=SURFACE_SIDE_STYLE('',(#289));
#185=EDGE_LOOP('',(#290,#291,#292,#293));
#186=AXIS2_PLACEMENT_3D('',#294,#295,#296);
#187=SURFACE_SIDE_STYLE('',(#297));
#188=EDGE_LOOP('',(#298,#299,#300,#301));
#189=AXIS2_PLACEMENT_3D('',#302,#303,#304);
#190=SURFACE_SIDE_STYLE('',(#305));
#191=EDGE_LOOP('',(#306,#307,#308,#309));
#192=AXIS2_PLACEMENT_3D('',#310,#311,#312);
#193=SURFACE_SIDE_STYLE('',(#313));
#194=EDGE_LOOP('',(#314,#315,#316,#317));
#195=AXIS2_PLACEMENT_3D('',#318,#319,#320);
#196=SURFACE_SIDE_STYLE('',(#321));
#197=EDGE_LOOP('',(#322,#323,#324,#325));
#198=AXIS2_PLACEMENT_3D('',#326,#327,#328);
#199=SURFACE_SIDE_STYLE('',(#329));
#200=EDGE_LOOP('',(#330,#331));
#201=EDGE_LOOP('',(#332,#333,#334,#335,#336,#337,#338,#339,#340,#341,#342,#343,#344));
#202=AXIS2_PLACEMENT_3D('',#345,#346,#347);
#203=SURFACE_SIDE_STYLE('',(#348));
#204=EDGE_LOOP('',(#349,#350));
#205=EDGE_LOOP('',(#351,#352,#353,#354,#355,#356,#357,#358,#359,#360,#361,#362,#363));
#206=AXIS2_PLACEMENT_3D('',#364,#365,#366);
#207=SURFACE_SIDE_STYLE('',(#367));
#209=SURFACE_STYLE_FILL_AREA(#368);
#210=ORIENTED_EDGE('',*,*,#369,.F.);
#211=ORIENTED_EDGE('',*,*,#370,.F.);
#212=ORIENTED_EDGE('',*,*,#371,.F.);
#213=ORIENTED_EDGE('',*,*,#372,.F.);
#214=CARTESIAN_POINT('',(500.0,0.0,0.0));
#215=DIRECTION('',(1.0,0.0,0.0));
#216=DIRECTION('',(0.0,1.0,0.0));
#217=SURFACE_STYLE_FILL_AREA(#373);
#218=ORIENTED_EDGE('',*,*,#369,.T.);
#219=ORIENTED_EDGE('',*,*,#374,.F.);
#220=ORIENTED_EDGE('',*,*,#371,.T.);
#221=ORIENTED_EDGE('',*,*,#375,.F.);
#222=CARTESIAN_POINT('',(500.0,0.0,0.0));
#223=DIRECTION('',(1.0,0.0,0.0));
#224=DIRECTION('',(0.0,1.0,0.0));
#225=SURFACE_STYLE_FILL_AREA(#376);
#226=ORIENTED_EDGE('',*,*,#377,.T.);
#227=ORIENTED_EDGE('',*,*,#378,.F.);
#228=ORIENTED_EDGE('',*,*,#379,.F.);
#229=ORIENTED_EDGE('',*,*,#380,.T.);
#230=CARTESIAN_POINT('',(0.0,-7.25,-3.0));
#231=DIRECTION('',(0.0,0.0,1.0));
#232=DIRECTION('',(0.0,-1.0,0.0));
#233=SURFACE_STYLE_FILL_AREA(#381);
#234=ORIENTED_EDGE('',*,*,#382,.T.);
#235=ORIENTED_EDGE('',*,*,#383,.F.);
#236=ORIENTED_EDGE('',*,*,#384,.F.);
#237=ORIENTED_EDGE('',*,*,#378,.T.);
#238=CARTESIAN_POINT('',(0.0,-4.5,0.0));
#239=DIRECTION('',(0.0,-1.0,-0.0));
#240=DIRECTION('',(-0.0,0.0,-1.0));
#241=SURFACE_STYLE_FILL_AREA(#385);
#242=ORIENTED_EDGE('',*,*,#386,.T.);
#243=ORIENTED_EDGE('',*,*,#387,.F.);
#244=ORIENTED_EDGE('',*,*,#388,.F.);
#245=ORIENTED_EDGE('',*,*,#383,.T.);
#246=CARTESIAN_POINT('',(0.0,-7.25,3.0));
#247=DIRECTION('',(0.0,0.0,-1.0));
#248=DIRECTION('',(0.0,1.0,0.0));
#249=SURFACE_STYLE_FILL_AREA(#389);
#250=ORIENTED_EDGE('',*,*,#390,.T.);
#251=ORIENTED_EDGE('',*,*,#391,.F.);
#252=ORIENTED_EDGE('',*,*,#392,.F.);
#253=ORIENTED_EDGE('',*,*,#387,.T.);
#254=CARTESIAN_POINT('',(0.0,-10.0,6.5));
#255=DIRECTION('',(0.0,-1.0,-0.0));
#256=DIRECTION('',(-0.0,0.0,-1.0));
#257=SURFACE_STYLE_FILL_AREA(#393);
#258=ORIENTED_EDGE('',*,*,#394,.T.);
#259=ORIENTED_EDGE('',*,*,#395,.F.);
#260=ORIENTED_EDGE('',*,*,#396,.F.);
#261=ORIENTED_EDGE('',*,*,#391,.T.);
#262=CARTESIAN_POINT('',(0.0,-8.5,10.0));
#263=DIRECTION('',(0.0,0.0,1.0));
#264=DIRECTION('',(0.0,-1.0,0.0));
#265=SURFACE_STYLE_FILL_AREA(#397);
#266=ORIENTED_EDGE('',*,*,#398,.T.);
#267=ORIENTED_EDGE('',*,*,#399,.F.);
#268=ORIENTED_EDGE('',*,*,#400,.T.);
#269=ORIENTED_EDGE('',*,*,#395,.T.);
#270=CARTESIAN_POINT('',(0.0,-7.00000000058488,-7.00000000058488));
#271=DIRECTION('',(1.0,0.0,-0.0));
#272=DIRECTION('',(0.0,1.0,3.44047404932673E-11));
#273=SURFACE_STYLE_FILL_AREA(#401);
#274=ORIENTED_EDGE('',*,*,#402,.T.);
#275=ORIENTED_EDGE('',*,*,#403,.F.);
#276=ORIENTED_EDGE('',*,*,#404,.F.);
#277=ORIENTED_EDGE('',*,*,#399,.T.);
#278=CARTESIAN_POINT('',(0.0,10.0,-8.5));
#279=DIRECTION('',(0.0,1.0,0.0));
#280=DIRECTION('',(0.0,0.0,1.0));
#281=SURFACE_STYLE_FILL_AREA(#405);
#282=ORIENTED_EDGE('',*,*,#406,.T.);
#283=ORIENTED_EDGE('',*,*,#407,.F.);
#284=ORIENTED_EDGE('',*,*,#408,.F.);
#285=ORIENTED_EDGE('',*,*,#403,.T.);
#286=CARTESIAN_POINT('',(0.0,6.5,-10.0));
#287=DIRECTION('',(0.0,0.0,-1.0));
#288=DIRECTION('',(0.0,1.0,0.0));
#289=SURFACE_STYLE_FILL_AREA(#409);
#290=ORIENTED_EDGE('',*,*,#410,.T.);
#291=ORIENTED_EDGE('',*,*,#411,.F.);
#292=ORIENTED_EDGE('',*,*,#412,.F.);
#293=ORIENTED_EDGE('',*,*,#407,.T.);
#294=CARTESIAN_POINT('',(0.0,3.0,-7.25));
#295=DIRECTION('',(0.0,-1.0,-0.0));
#296=DIRECTION('',(-0.0,0.0,-1.0));
#297=SURFACE_STYLE_FILL_AREA(#413);
#298=ORIENTED_EDGE('',*,*,#414,.T.);
#299=ORIENTED_EDGE('',*,*,#415,.F.);
#300=ORIENTED_EDGE('',*,*,#416,.F.);
#301=ORIENTED_EDGE('',*,*,#411,.T.);
#302=CARTESIAN_POINT('',(0.0,0.0,-4.5));
#303=DIRECTION('',(0.0,0.0,-1.0));
#304=DIRECTION('',(0.0,1.0,0.0));
#305=SURFACE_STYLE_FILL_AREA(#417);
#306=ORIENTED_EDGE('',*,*,#418,.T.);
#307=ORIENTED_EDGE('',*,*,#419,.F.);
#308=ORIENTED_EDGE('',*,*,#420,.F.);
#309=ORIENTED_EDGE('',*,*,#415,.T.);
#310=CARTESIAN_POINT('',(0.0,-3.0,-7.25));
#311=DIRECTION('',(0.0,1.0,0.0));
#312=DIRECTION('',(0.0,0.0,1.0));
#313=SURFACE_STYLE_FILL_AREA(#421);
#314=ORIENTED_EDGE('',*,*,#422,.T.);
#315=ORIENTED_EDGE('',*,*,#423,.F.);
#316=ORIENTED_EDGE('',*,*,#424,.F.);
#317=ORIENTED_EDGE('',*,*,#419,.T.);
#318=CARTESIAN_POINT('',(0.0,-6.5,-10.0));
#319=DIRECTION('',(0.0,0.0,-1.0));
#320=DIRECTION('',(0.0,1.0,0.0));
#321=SURFACE_STYLE_FILL_AREA(#425);
#322=ORIENTED_EDGE('',*,*,#426,.T.);
#323=ORIENTED_EDGE('',*,*,#380,.F.);
#324=ORIENTED_EDGE('',*,*,#427,.F.);
#325=ORIENTED_EDGE('',*,*,#423,.T.);
#326=CARTESIAN_POINT('',(0.0,-10.0,-6.5));
#327=DIRECTION('',(0.0,-1.0,-0.0));
#328=DIRECTION('',(-0.0,0.0,-1.0));
#329=SURFACE_STYLE_FILL_AREA(#428);
#330=ORIENTED_EDGE('',*,*,#375,.T.);
#331=ORIENTED_EDGE('',*,*,#370,.T.);
#332=ORIENTED_EDGE('',*,*,#377,.F.);
#333=ORIENTED_EDGE('',*,*,#426,.F.);
#334=ORIENTED_EDGE('',*,*,#422,.F.);
#335=ORIENTED_EDGE('',*,*,#418,.F.);
#336=ORIENTED_EDGE('',*,*,#414,.F.);
#337=ORIENTED_EDGE('',*,*,#410,.F.);
#338=ORIENTED_EDGE('',*,*,#406,.F.);
#339=ORIENTED_EDGE('',*,*,#402,.F.);
#340=ORIENTED_EDGE('',*,*,#398,.F.);
#341=ORIENTED_EDGE('',*,*,#394,.F.);
#342=ORIENTED_EDGE('',*,*,#390,.F.);
#343=ORIENTED_EDGE('',*,*,#386,.F.);
#344=ORIENTED_EDGE('',*,*,#382,.F.);
#345=CARTESIAN_POINT('',(1000.0,-1.54538442576262,-1.54538442576262));
#346=DIRECTION('',(1.0,0.0,0.0));
#347=DIRECTION('',(0.0,1.0,0.0));
#348=SURFACE_STYLE_FILL_AREA(#429);
#349=ORIENTED_EDGE('',*,*,#372,.T.);
#350=ORIENTED_EDGE('',*,*,#374,.T.);
#351=ORIENTED_EDGE('',*,*,#427,.T.);
#352=ORIENTED_EDGE('',*,*,#379,.T.);
#353=ORIENTED_EDGE('',*,*,#384,.T.);
#354=ORIENTED_EDGE('',*,*,#388,.T.);
#355=ORIENTED_EDGE('',*,*,#392,.T.);
#356=ORIENTED_EDGE('',*,*,#396,.T.);
#357=ORIENTED_EDGE('',*,*,#400,.F.);
#358=ORIENTED_EDGE('',*,*,#404,.T.);
#359=ORIENTED_EDGE('',*,*,#408,.T.);
#360=ORIENTED_EDGE('',*,*,#412,.T.);
#361=ORIENTED_EDGE('',*,*,#416,.T.);
#362=ORIENTED_EDGE('',*,*,#420,.T.);
#363=ORIENTED_EDGE('',*,*,#424,.T.);
#364=CARTESIAN_POINT('',(0.0,-1.54538442576262,-1.54538442576262));
#365=DIRECTION('',(1.0,0.0,0.0));
#366=DIRECTION('',(0.0,1.0,0.0));
#367=SURFACE_STYLE_FILL_AREA(#430);
#368=FILL_AREA_STYLE('',(#431));
#369=EDGE_CURVE('',#432,#433,#434,.T.);
#370=EDGE_CURVE('',#435,#432,#436,.T.);
#371=EDGE_CURVE('',#437,#435,#438,.T.);
#372=EDGE_CURVE('',#433,#437,#439,.T.);
#373=FILL_AREA_STYLE('',(#440));
#374=EDGE_CURVE('',#437,#433,#441,.T.);
#375=EDGE_CURVE('',#432,#435,#442,.T.);
#376=FILL_AREA_STYLE('',(#443));
#377=EDGE_CURVE('',#444,#445,#446,.T.);
#378=EDGE_CURVE('',#447,#445,#448,.T.);
#379=EDGE_CURVE('',#449,#447,#450,.T.);
#380=EDGE_CURVE('',#449,#444,#451,.T.);
#381=FILL_AREA_STYLE('',(#452));
#382=EDGE_CURVE('',#445,#453,#454,.T.);
#383=EDGE_CURVE('',#455,#453,#456,.T.);
#384=EDGE_CURVE('',#447,#455,#457,.T.);
#385=FILL_AREA_STYLE('',(#458));
#386=EDGE_CURVE('',#453,#459,#460,.T.);
#387=EDGE_CURVE('',#461,#459,#462,.T.);
#388=EDGE_CURVE('',#455,#461,#463,.T.);
#389=FILL_AREA_STYLE('',(#464));
#390=EDGE_CURVE('',#459,#465,#466,.T.);
#391=EDGE_CURVE('',#467,#465,#468,.T.);
#392=EDGE_CURVE('',#461,#467,#469,.T.);
#393=FILL_AREA_STYLE('',(#470));
#394=EDGE_CURVE('',#465,#471,#472,.T.);
#395=EDGE_CURVE('',#473,#471,#474,.T.);
#396=EDGE_CURVE('',#467,#473,#475,.T.);
#397=FILL_AREA_STYLE('',(#476));
#398=EDGE_CURVE('',#471,#477,#478,.T.);
#399=EDGE_CURVE('',#479,#477,#480,.T.);
#400=EDGE_CURVE('',#479,#473,#481,.T.);
#401=FILL_AREA_STYLE('',(#482));
#402=EDGE_CURVE('',#477,#483,#484,.T.);
#403=EDGE_CURVE('',#485,#483,#486,.T.);
#404=EDGE_CURVE('',#479,#485,#487,.T.);
#405=FILL_AREA_STYLE('',(#488));
#406=EDGE_CURVE('',#483,#489,#490,.T.);
#407=EDGE_CURVE('',#491,#489,#492,.T.);
#408=EDGE_CURVE('',#485,#491,#493,.T.);
#409=FILL_AREA_STYLE('',(#494));
#410=EDGE_CURVE('',#489,#495,#496,.T.);
#411=EDGE_CURVE('',#497,#495,#498,.T.);
#412=EDGE_CURVE('',#491,#497,#499,.T.);
#413=FILL_AREA_STYLE('',(#500));
#414=EDGE_CURVE('',#495,#501,#502,.T.);
#415=EDGE_CURVE('',#503,#501,#504,.T.);
#416=EDGE_CURVE('',#497,#503,#505,.T.);
#417=FILL_AREA_STYLE('',(#506));
#418=EDGE_CURVE('',#501,#507,#508,.T.);
#419=EDGE_CURVE('',#509,#507,#510,.T.);
#420=EDGE_CURVE('',#503,#509,#511,.T.);
#421=FILL_AREA_STYLE('',(#512));
#422=EDGE_CURVE('',#507,#513,#514,.T.);
#423=EDGE_CURVE('',#515,#513,#516,.T.);
#424=EDGE_CURVE('',#509,#515,#517,.T.);
#425=FILL_AREA_STYLE('',(#518));
#426=EDGE_CURVE('',#513,#444,#519,.T.);
#427=EDGE_CURVE('',#515,#449,#520,.T.);
#428=FILL_AREA_STYLE('',(#521));
#429=FILL_AREA_STYLE('',(#522));
#430=FILL_AREA_STYLE('',(#523));
#431=FILL_AREA_STYLE_COLOUR('',#524);
#432=VERTEX_POINT('',#525);
#433=VERTEX_POINT('',#526);
#434=LINE('',#527,#528);
#435=VERTEX_POINT('',#529);
#436=CIRCLE('',#530,2.75);
#437=VERTEX_POINT('',#531);
#438=LINE('',#532,#533);
#439=CIRCLE('',#534,2.75);
#440=FILL_AREA_STYLE_COLOUR('',#535);
#441=CIRCLE('',#536,2.75);
#442=CIRCLE('',#537,2.75);
#443=FILL_AREA_STYLE_COLOUR('',#538);
#444=VERTEX_POINT('',#539);
#445=VERTEX_POINT('',#540);
#446=LINE('',#541,#542);
#447=VERTEX_POINT('',#543);
#448=LINE('',#544,#545);
#449=VERTEX_POINT('',#546);
#450=LINE('',#547,#548);
#451=LINE('',#549,#550);
#452=FILL_AREA_STYLE_COLOUR('',#551);
#453=VERTEX_POINT('',#552);
#454=LINE('',#553,#554);
#455=VERTEX_POINT('',#555);
#456=LINE('',#556,#557);
#457=LINE('',#558,#559);
#458=FILL_AREA_STYLE_COLOUR('',#560);
#459=VERTEX_POINT('',#561);
#460=LINE('',#562,#563);
#461=VERTEX_POINT('',#564);
#462=LINE('',#565,#566);
#463=LINE('',#567,#568);
#464=FILL_AREA_STYLE_COLOUR('',#569);
#465=VERTEX_POINT('',#570);
#466=LINE('',#571,#572);
#467=VERTEX_POINT('',#573);
#468=LINE('',#574,#575);
#469=LINE('',#576,#577);
#470=FILL_AREA_STYLE_COLOUR('',#578);
#471=VERTEX_POINT('',#579);
#472=LINE('',#580,#581);
#473=VERTEX_POINT('',#582);
#474=LINE('',#583,#584);
#475=LINE('',#585,#586);
#476=FILL_AREA_STYLE_COLOUR('',#587);
#477=VERTEX_POINT('',#588);
#478=CIRCLE('',#589,17.0000000005849);
#479=VERTEX_POINT('',#590);
#480=LINE('',#591,#592);
#481=CIRCLE('',#593,17.0000000005849);
#482=FILL_AREA_STYLE_COLOUR('',#594);
#483=VERTEX_POINT('',#595);
#484=LINE('',#596,#597);
#485=VERTEX_POINT('',#598);
#486=LINE('',#599,#600);
#487=LINE('',#601,#602);
#488=FILL_AREA_STYLE_COLOUR('',#603);
#489=VERTEX_POINT('',#604);
#490=LINE('',#605,#606);
#491=VERTEX_POINT('',#607);
#492=LINE('',#608,#609);
#493=LINE('',#610,#611);
#494=FILL_AREA_STYLE_COLOUR('',#612);
#495=VERTEX_POINT('',#613);
#496=LINE('',#614,#615);
#497=VERTEX_POINT('',#616);
#498=LINE('',#617,#618);
#499=LINE('',#619,#620);
#500=FILL_AREA_STYLE_COLOUR('',#621);
#501=VERTEX_POINT('',#622);
#502=LINE('',#623,#624);
#503=VERTEX_POINT('',#625);
#504=LINE('',#626,#627);
#505=LINE('',#628,#629);
#506=FILL_AREA_STYLE_COLOUR('',#630);
#507=VERTEX_POINT('',#631);
#508=LINE('',#632,#633);
#509=VERTEX_POINT('',#634);
#510=LINE('',#635,#636);
#511=LINE('',#637,#638);
#512=FILL_AREA_STYLE_COLOUR('',#639);
#513=VERTEX_POINT('',#640);
#514=LINE('',#641,#642);
#515=VERTEX_POINT('',#643);
#516=LINE('',#644,#645);
#517=LINE('',#646,#647);
#518=FILL_AREA_STYLE_COLOUR('',#648);
#519=LINE('',#649,#650);
#520=LINE('',#651,#652);
#521=FILL_AREA_STYLE_COLOUR('',#653);
#522=FILL_AREA_STYLE_COLOUR('',#654);
#523=FILL_AREA_STYLE_COLOUR('',#655);
#524=COLOUR_RGB('',0.509803950786591,0.509803950786591,0.588235318660736);
#525=CARTESIAN_POINT('',(1000.0,2.75,0.0));
#526=CARTESIAN_POINT('',(0.0,2.75,0.0));
#527=CARTESIAN_POINT('',(500.0,2.75,-3.36777869765522E-16));
#528=VECTOR('',#656,1.0);
#529=CARTESIAN_POINT('',(1000.0,-2.75,3.36777869765522E-16));
#530=AXIS2_PLACEMENT_3D('',#657,#658,#659);
#531=CARTESIAN_POINT('',(0.0,-2.75,3.36777869765522E-16));
#532=CARTESIAN_POINT('',(500.0,-2.75,3.36777869765522E-16));
#533=VECTOR('',#660,1.0);
#534=AXIS2_PLACEMENT_3D('',#661,#662,#663);
#535=COLOUR_RGB('',0.509803950786591,0.509803950786591,0.588235318660736);
#536=AXIS2_PLACEMENT_3D('',#664,#665,#666);
#537=AXIS2_PLACEMENT_3D('',#667,#668,#669);
#538=COLOUR_RGB('',0.509803950786591,0.509803950786591,0.588235318660736);
#539=CARTESIAN_POINT('',(1000.0,-10.0,-3.0));
#540=CARTESIAN_POINT('',(1000.0,-4.5,-3.0));
#541=CARTESIAN_POINT('',(1000.0,-10.0,-3.0));
#542=VECTOR('',#670,1.0);
#543=CARTESIAN_POINT('',(0.0,-4.5,-3.0));
#544=CARTESIAN_POINT('',(0.0,-4.5,-3.0));
#545=VECTOR('',#671,1.0);
#546=CARTESIAN_POINT('',(0.0,-10.0,-3.0));
#547=CARTESIAN_POINT('',(0.0,-10.0,-3.0));
#548=VECTOR('',#672,1.0);
#549=CARTESIAN_POINT('',(0.0,-10.0,-3.0));
#550=VECTOR('',#673,1.0);
#551=COLOUR_RGB('',0.509803950786591,0.509803950786591,0.588235318660736);
#552=CARTESIAN_POINT('',(1000.0,-4.5,3.0));
#553=CARTESIAN_POINT('',(1000.0,-4.5,-3.0));
#554=VECTOR('',#674,1.0);
#555=CARTESIAN_POINT('',(0.0,-4.5,3.0));
#556=CARTESIAN_POINT('',(0.0,-4.5,3.0));
#557=VECTOR('',#675,1.0);
#558=CARTESIAN_POINT('',(0.0,-4.5,-3.0));
#559=VECTOR('',#676,1.0);
#560=COLOUR_RGB('',0.509803950786591,0.509803950786591,0.588235318660736);
#561=CARTESIAN_POINT('',(1000.0,-10.0,3.0));
#562=CARTESIAN_POINT('',(1000.0,-4.5,3.0));
#563=VECTOR('',#677,1.0);
#564=CARTESIAN_POINT('',(0.0,-10.0,3.0));
#565=CARTESIAN_POINT('',(0.0,-10.0,3.0));
#566=VECTOR('',#678,1.0);
#567=CARTESIAN_POINT('',(0.0,-4.5,3.0));
#568=VECTOR('',#679,1.0);
#569=COLOUR_RGB('',0.509803950786591,0.509803950786591,0.588235318660736);
#570=CARTESIAN_POINT('',(1000.0,-10.0,10.0));
#571=CARTESIAN_POINT('',(1000.0,-10.0,3.0));
#572=VECTOR('',#680,1.0);
#573=CARTESIAN_POINT('',(0.0,-10.0,10.0));
#574=CARTESIAN_POINT('',(0.0,-10.0,10.0));
#575=VECTOR('',#681,1.0);
#576=CARTESIAN_POINT('',(0.0,-10.0,3.0));
#577=VECTOR('',#682,1.0);
#578=COLOUR_RGB('',0.509803950786591,0.509803950786591,0.588235318660736);
#579=CARTESIAN_POINT('',(1000.0,-7.0,10.0));
#580=CARTESIAN_POINT('',(1000.0,-10.0,10.0));
#581=VECTOR('',#683,1.0);
#582=CARTESIAN_POINT('',(0.0,-7.0,10.0));
#583=CARTESIAN_POINT('',(0.0,-7.0,10.0));
#584=VECTOR('',#684,1.0);
#585=CARTESIAN_POINT('',(0.0,-10.0,10.0));
#586=VECTOR('',#685,1.0);
#587=COLOUR_RGB('',0.509803950786591,0.509803950786591,0.588235318660736);
#588=CARTESIAN_POINT('',(1000.0,10.0,-7.0));
#589=AXIS2_PLACEMENT_3D('',#686,#687,#688);
#590=CARTESIAN_POINT('',(0.0,10.0,-7.0));
#591=CARTESIAN_POINT('',(0.0,10.0,-7.0));
#592=VECTOR('',#689,1.0);
#593=AXIS2_PLACEMENT_3D('',#690,#691,#692);
#594=COLOUR_RGB('',0.509803950786591,0.509803950786591,0.588235318660736);
#595=CARTESIAN_POINT('',(1000.0,10.0,-10.0));
#596=CARTESIAN_POINT('',(1000.0,10.0,-7.0));
#597=VECTOR('',#693,1.0);
#598=CARTESIAN_POINT('',(0.0,10.0,-10.0));
#599=CARTESIAN_POINT('',(0.0,10.0,-10.0));
#600=VECTOR('',#694,1.0);
#601=CARTESIAN_POINT('',(0.0,10.0,-7.0));
#602=VECTOR('',#695,1.0);
#603=COLOUR_RGB('',0.509803950786591,0.509803950786591,0.588235318660736);
#604=CARTESIAN_POINT('',(1000.0,3.0,-10.0));
#605=CARTESIAN_POINT('',(1000.0,10.0,-10.0));
#606=VECTOR('',#696,1.0);
#607=CARTESIAN_POINT('',(0.0,3.0,-10.0));
#608=CARTESIAN_POINT('',(0.0,3.0,-10.0));
#609=VECTOR('',#697,1.0);
#610=CARTESIAN_POINT('',(0.0,10.0,-10.0));
#611=VECTOR('',#698,1.0);
#612=COLOUR_RGB('',0.509803950786591,0.509803950786591,0.588235318660736);
#613=CARTESIAN_POINT('',(1000.0,3.0,-4.5));
#614=CARTESIAN_POINT('',(1000.0,3.0,-10.0));
#615=VECTOR('',#699,1.0);
#616=CARTESIAN_POINT('',(0.0,3.0,-4.5));
#617=CARTESIAN_POINT('',(0.0,3.0,-4.5));
#618=VECTOR('',#700,1.0);
#619=CARTESIAN_POINT('',(0.0,3.0,-10.0));
#620=VECTOR('',#701,1.0);
#621=COLOUR_RGB('',0.509803950786591,0.509803950786591,0.588235318660736);
#622=CARTESIAN_POINT('',(1000.0,-3.0,-4.5));
#623=CARTESIAN_POINT('',(1000.0,3.0,-4.5));
#624=VECTOR('',#702,1.0);
#625=CARTESIAN_POINT('',(0.0,-3.0,-4.5));
#626=CARTESIAN_POINT('',(0.0,-3.0,-4.5));
#627=VECTOR('',#703,1.0);
#628=CARTESIAN_POINT('',(0.0,3.0,-4.5));
#629=VECTOR('',#704,1.0);
#630=COLOUR_RGB('',0.509803950786591,0.509803950786591,0.588235318660736);
#631=CARTESIAN_POINT('',(1000.0,-3.0,-10.0));
#632=CARTESIAN_POINT('',(1000.0,-3.0,-4.5));
#633=VECTOR('',#705,1.0);
#634=CARTESIAN_POINT('',(0.0,-3.0,-10.0));
#635=CARTESIAN_POINT('',(0.0,-3.0,-10.0));
#636=VECTOR('',#706,1.0);
#637=CARTESIAN_POINT('',(0.0,-3.0,-4.5));
#638=VECTOR('',#707,1.0);
#639=COLOUR_RGB('',0.509803950786591,0.509803950786591,0.588235318660736);
#640=CARTESIAN_POINT('',(1000.0,-10.0,-10.0));
#641=CARTESIAN_POINT('',(1000.0,-3.0,-10.0));
#642=VECTOR('',#708,1.0);
#643=CARTESIAN_POINT('',(0.0,-10.0,-10.0));
#644=CARTESIAN_POINT('',(0.0,-10.0,-10.0));
#645=VECTOR('',#709,1.0);
#646=CARTESIAN_POINT('',(0.0,-3.0,-10.0));
#647=VECTOR('',#710,1.0);
#648=COLOUR_RGB('',0.509803950786591,0.509803950786591,0.588235318660736);
#649=CARTESIAN_POINT('',(1000.0,-10.0,-10.0));
#650=VECTOR('',#711,1.0);
#651=CARTESIAN_POINT('',(0.0,-10.0,-10.0));
#652=VECTOR('',#712,1.0);
#653=COLOUR_RGB('',0.509803950786591,0.509803950786591,0.588235318660736);
#654=COLOUR_RGB('',0.509803950786591,0.509803950786591,0.588235318660736);
#655=COLOUR_RGB('',0.509803950786591,0.509803950786591,0.588235318660736);
#656=DIRECTION('',(-1.0,-0.0,0.0));
#657=CARTESIAN_POINT('',(1000.0,0.0,0.0));
#658=DIRECTION('',(-1.0,0.0,0.0));
#659=DIRECTION('',(0.0,1.0,0.0));
#660=DIRECTION('',(1.0,-0.0,0.0));
#661=CARTESIAN_POINT('',(0.0,0.0,0.0));
#662=DIRECTION('',(1.0,0.0,0.0));
#663=DIRECTION('',(0.0,1.0,0.0));
#664=CARTESIAN_POINT('',(0.0,0.0,0.0));
#665=DIRECTION('',(1.0,0.0,0.0));
#666=DIRECTION('',(0.0,1.0,0.0));
#667=CARTESIAN_POINT('',(1000.0,0.0,0.0));
#668=DIRECTION('',(-1.0,0.0,0.0));
#669=DIRECTION('',(0.0,1.0,0.0));
#670=DIRECTION('',(0.0,1.0,0.0));
#671=DIRECTION('',(1.0,0.0,0.0));
#672=DIRECTION('',(0.0,1.0,0.0));
#673=DIRECTION('',(1.0,0.0,0.0));
#674=DIRECTION('',(0.0,0.0,1.0));
#675=DIRECTION('',(1.0,0.0,0.0));
#676=DIRECTION('',(0.0,0.0,1.0));
#677=DIRECTION('',(0.0,-1.0,0.0));
#678=DIRECTION('',(1.0,0.0,0.0));
#679=DIRECTION('',(0.0,-1.0,0.0));
#680=DIRECTION('',(0.0,0.0,1.0));
#681=DIRECTION('',(1.0,0.0,0.0));
#682=DIRECTION('',(0.0,0.0,1.0));
#683=DIRECTION('',(0.0,1.0,0.0));
#684=DIRECTION('',(1.0,0.0,0.0));
#685=DIRECTION('',(0.0,1.0,0.0));
#686=CARTESIAN_POINT('',(1000.0,-7.00000000058488,-7.00000000058488));
#687=DIRECTION('',(-1.0,0.0,0.0));
#688=DIRECTION('',(0.0,1.0,3.44047404932673E-11));
#689=DIRECTION('',(1.0,0.0,0.0));
#690=CARTESIAN_POINT('',(0.0,-7.00000000058488,-7.00000000058488));
#691=DIRECTION('',(1.0,0.0,-0.0));
#692=DIRECTION('',(0.0,1.0,3.44047404932673E-11));
#693=DIRECTION('',(0.0,0.0,-1.0));
#694=DIRECTION('',(1.0,0.0,0.0));
#695=DIRECTION('',(0.0,0.0,-1.0));
#696=DIRECTION('',(0.0,-1.0,0.0));
#697=DIRECTION('',(1.0,0.0,0.0));
#698=DIRECTION('',(0.0,-1.0,0.0));
#699=DIRECTION('',(0.0,0.0,1.0));
#700=DIRECTION('',(1.0,0.0,0.0));
#701=DIRECTION('',(0.0,0.0,1.0));
#702=DIRECTION('',(0.0,-1.0,0.0));
#703=DIRECTION('',(1.0,0.0,0.0));
#704=DIRECTION('',(0.0,-1.0,0.0));
#705=DIRECTION('',(0.0,0.0,-1.0));
#706=DIRECTION('',(1.0,0.0,0.0));
#707=DIRECTION('',(0.0,0.0,-1.0));
#708=DIRECTION('',(0.0,-1.0,0.0));
#709=DIRECTION('',(1.0,0.0,0.0));
#710=DIRECTION('',(0.0,-1.0,0.0));
#711=DIRECTION('',(0.0,0.0,1.0));
#712=DIRECTION('',(0.0,0.0,1.0));
ENDSEC;
END-ISO-10303-21;
