ISO-10303-21;
HEADER;
FILE_DESCRIPTION(('STEP AP214'),'1');
FILE_NAME('cctmp_EA0AEA2B-BA04-4C68-9C47-A521B11E6703_2024_07_17_16_33_51_0030_16312..stp','2024-07-17T14:33:51',('Bosch Rexroth AG'),('CADClick - www.CADClick.com'),'Spatial InterOp 3D',' ','unknown authorization - (Healing Option Enabled)');
FILE_SCHEMA(('AUTOMOTIVE_DESIGN'));
ENDSEC;
DATA;
#1=MECHANICAL_DESIGN_GEOMETRIC_PRESENTATION_REPRESENTATION(' ',(#10,#11,#12,#13,#14,#15,#16,#17),#6);
#2=PRODUCT_DEFINITION_CONTEXT('',#18,'design');
#3=APPLICATION_PROTOCOL_DEFINITION('INTERNATIONAL STANDARD','automotive_design',1994,#18);
#4=PRODUCT_CATEGORY_RELATIONSHIP('NONE','NONE',#19,#20);
#5=SHAPE_DEFINITION_REPRESENTATION(#21,#22);
#6= (GEOMETRIC_REPRESENTATION_CONTEXT(3)GLOBAL_UNCERTAINTY_ASSIGNED_CONTEXT((#25))GLOBAL_UNIT_ASSIGNED_CONTEXT((#27,#28,#29))REPRESENTATION_CONTEXT('NONE','WORKSPACE'));
#10=STYLED_ITEM('',(#31),#32);
#11=STYLED_ITEM('',(#33),#34);
#12=STYLED_ITEM('',(#35),#36);
#13=STYLED_ITEM('',(#37),#38);
#14=STYLED_ITEM('',(#39),#40);
#15=STYLED_ITEM('',(#41),#42);
#16=STYLED_ITEM('',(#43),#44);
#17=STYLED_ITEM('',(#45),#46);
#18=APPLICATION_CONTEXT(' ');
#19=PRODUCT_CATEGORY('part','NONE');
#20=PRODUCT_RELATED_PRODUCT_CATEGORY('detail',' ',(#47));
#21=PRODUCT_DEFINITION_SHAPE('NONE','NONE',#48);
#22=ADVANCED_BREP_SHAPE_REPRESENTATION('2024_07_17_16_33_51_0015',(#46,#49),#6);
#25=UNCERTAINTY_MEASURE_WITH_UNIT(LENGTH_MEASURE(1.0E-06),#27,'','');
#27= (CONVERSION_BASED_UNIT('MILLIMETRE',#52)LENGTH_UNIT()NAMED_UNIT(#55));
#28= (NAMED_UNIT(#57)PLANE_ANGLE_UNIT()SI_UNIT($,.RADIAN.));
#29= (NAMED_UNIT(#57)SOLID_ANGLE_UNIT()SI_UNIT($,.STERADIAN.));
#31=PRESENTATION_STYLE_ASSIGNMENT((#63));
#32=ADVANCED_FACE('',(#64),#65,.T.);
#33=PRESENTATION_STYLE_ASSIGNMENT((#66));
#34=ADVANCED_FACE('',(#67),#68,.T.);
#35=PRESENTATION_STYLE_ASSIGNMENT((#69));
#36=ADVANCED_FACE('',(#70),#71,.T.);
#37=PRESENTATION_STYLE_ASSIGNMENT((#72));
#38=ADVANCED_FACE('',(#73),#74,.T.);
#39=PRESENTATION_STYLE_ASSIGNMENT((#75));
#40=ADVANCED_FACE('',(#76),#77,.T.);
#41=PRESENTATION_STYLE_ASSIGNMENT((#78));
#42=ADVANCED_FACE('',(#79),#80,.T.);
#43=PRESENTATION_STYLE_ASSIGNMENT((#81));
#44=ADVANCED_FACE('',(#82),#83,.T.);
#45=PRESENTATION_STYLE_ASSIGNMENT((#84));
#46=MANIFOLD_SOLID_BREP('2024_07_17_16_33_51_0015',#85);
#47=PRODUCT('2024_07_17_16_33_51_0015','2024_07_17_16_33_51_0015','PART-2024_07_17_16_33_51_0015-DESC',(#86));
#48=PRODUCT_DEFINITION('','NONE',#87,#2);
#49=AXIS2_PLACEMENT_3D('',#88,#89,#90);
#52=LENGTH_MEASURE_WITH_UNIT(LENGTH_MEASURE(1.0),#91);
#55=DIMENSIONAL_EXPONENTS(1.0,0.0,0.0,0.0,0.0,0.0,0.0);
#57=DIMENSIONAL_EXPONENTS(0.0,0.0,0.0,0.0,0.0,0.0,0.0);
#63=SURFACE_STYLE_USAGE(.BOTH.,#92);
#64=FACE_OUTER_BOUND('',#93,.T.);
#65=CYLINDRICAL_SURFACE('',#94,14.0);
#66=SURFACE_STYLE_USAGE(.BOTH.,#95);
#67=FACE_OUTER_BOUND('',#96,.T.);
#68=CONICAL_SURFACE('',#97,13.50127065,0.749744431083806);
#69=SURFACE_STYLE_USAGE(.BOTH.,#98);
#70=FACE_OUTER_BOUND('',#99,.T.);
#71=CONICAL_SURFACE('',#100,6.50127065,1.49948886200961);
#72=SURFACE_STYLE_USAGE(.BOTH.,#101);
#73=FACE_OUTER_BOUND('',#102,.T.);
#74=CONICAL_SURFACE('',#103,6.50127065,1.49948886200961);
#75=SURFACE_STYLE_USAGE(.BOTH.,#104);
#76=FACE_OUTER_BOUND('',#105,.T.);
#77=CONICAL_SURFACE('',#106,13.50127065,0.749744431083806);
#78=SURFACE_STYLE_USAGE(.BOTH.,#107);
#79=FACE_OUTER_BOUND('',#108,.T.);
#80=CYLINDRICAL_SURFACE('',#109,14.0);
#81=SURFACE_STYLE_USAGE(.BOTH.,#110);
#82=FACE_OUTER_BOUND('',#111,.T.);
#83=PLANE('',#112);
#84=SURFACE_STYLE_USAGE(.BOTH.,#113);
#85=CLOSED_SHELL('',(#32,#34,#36,#38,#40,#42,#44));
#86=PRODUCT_CONTEXT('',#18,'mechanical');
#87=PRODUCT_DEFINITION_FORMATION_WITH_SPECIFIED_SOURCE(' ','NONE',#47,.NOT_KNOWN.);
#88=CARTESIAN_POINT('',(0.0,0.0,0.0));
#89=DIRECTION('',(0.0,0.0,1.0));
#90=DIRECTION('',(1.0,0.0,0.0));
#91= (NAMED_UNIT(#55)LENGTH_UNIT()SI_UNIT(.MILLI.,.METRE.));
#92=SURFACE_SIDE_STYLE('',(#115));
#93=EDGE_LOOP('',(#116,#117,#118,#119));
#94=AXIS2_PLACEMENT_3D('',#120,#121,#122);
#95=SURFACE_SIDE_STYLE('',(#123));
#96=EDGE_LOOP('',(#124,#125,#126,#127));
#97=AXIS2_PLACEMENT_3D('',#128,#129,#130);
#98=SURFACE_SIDE_STYLE('',(#131));
#99=EDGE_LOOP('',(#132,#133,#134));
#100=AXIS2_PLACEMENT_3D('',#135,#136,#137);
#101=SURFACE_SIDE_STYLE('',(#138));
#102=EDGE_LOOP('',(#139,#140,#141));
#103=AXIS2_PLACEMENT_3D('',#142,#143,#144);
#104=SURFACE_SIDE_STYLE('',(#145));
#105=EDGE_LOOP('',(#146,#147,#148,#149));
#106=AXIS2_PLACEMENT_3D('',#150,#151,#152);
#107=SURFACE_SIDE_STYLE('',(#153));
#108=EDGE_LOOP('',(#154,#155,#156,#157));
#109=AXIS2_PLACEMENT_3D('',#158,#159,#160);
#110=SURFACE_SIDE_STYLE('',(#161));
#111=EDGE_LOOP('',(#162,#163));
#112=AXIS2_PLACEMENT_3D('',#164,#165,#166);
#113=SURFACE_SIDE_STYLE('',(#167));
#115=SURFACE_STYLE_FILL_AREA(#168);
#116=ORIENTED_EDGE('',*,*,#169,.F.);
#117=ORIENTED_EDGE('',*,*,#170,.T.);
#118=ORIENTED_EDGE('',*,*,#171,.F.);
#119=ORIENTED_EDGE('',*,*,#172,.F.);
#120=CARTESIAN_POINT('',(-0.5,0.0,0.0));
#121=DIRECTION('',(1.0,0.0,0.0));
#122=DIRECTION('',(0.0,1.0,0.0));
#123=SURFACE_STYLE_FILL_AREA(#173);
#124=ORIENTED_EDGE('',*,*,#174,.F.);
#125=ORIENTED_EDGE('',*,*,#175,.T.);
#126=ORIENTED_EDGE('',*,*,#176,.F.);
#127=ORIENTED_EDGE('',*,*,#170,.F.);
#128=CARTESIAN_POINT('',(-1.535623525,0.0,0.0));
#129=DIRECTION('',(1.0,-0.0,-0.0));
#130=DIRECTION('',(0.0,1.0,0.0));
#131=SURFACE_STYLE_FILL_AREA(#177);
#132=ORIENTED_EDGE('',*,*,#178,.T.);
#133=ORIENTED_EDGE('',*,*,#179,.T.);
#134=ORIENTED_EDGE('',*,*,#180,.F.);
#135=CARTESIAN_POINT('',(-2.535623525,0.0,0.0));
#136=DIRECTION('',(1.0,-0.0,-0.0));
#137=DIRECTION('',(0.0,1.0,0.0));
#138=SURFACE_STYLE_FILL_AREA(#181);
#139=ORIENTED_EDGE('',*,*,#178,.F.);
#140=ORIENTED_EDGE('',*,*,#175,.F.);
#141=ORIENTED_EDGE('',*,*,#179,.F.);
#142=CARTESIAN_POINT('',(-2.535623525,0.0,0.0));
#143=DIRECTION('',(1.0,-0.0,-0.0));
#144=DIRECTION('',(0.0,1.0,0.0));
#145=SURFACE_STYLE_FILL_AREA(#182);
#146=ORIENTED_EDGE('',*,*,#174,.T.);
#147=ORIENTED_EDGE('',*,*,#183,.F.);
#148=ORIENTED_EDGE('',*,*,#176,.T.);
#149=ORIENTED_EDGE('',*,*,#180,.T.);
#150=CARTESIAN_POINT('',(-1.535623525,0.0,0.0));
#151=DIRECTION('',(1.0,-0.0,-0.0));
#152=DIRECTION('',(0.0,1.0,0.0));
#153=SURFACE_STYLE_FILL_AREA(#184);
#154=ORIENTED_EDGE('',*,*,#169,.T.);
#155=ORIENTED_EDGE('',*,*,#185,.F.);
#156=ORIENTED_EDGE('',*,*,#171,.T.);
#157=ORIENTED_EDGE('',*,*,#183,.T.);
#158=CARTESIAN_POINT('',(-0.5,0.0,0.0));
#159=DIRECTION('',(1.0,0.0,0.0));
#160=DIRECTION('',(0.0,1.0,0.0));
#161=SURFACE_STYLE_FILL_AREA(#186);
#162=ORIENTED_EDGE('',*,*,#172,.T.);
#163=ORIENTED_EDGE('',*,*,#185,.T.);
#164=CARTESIAN_POINT('',(0.0,7.0,0.0));
#165=DIRECTION('',(1.0,0.0,0.0));
#166=DIRECTION('',(0.0,1.0,0.0));
#167=SURFACE_STYLE_FILL_AREA(#187);
#168=FILL_AREA_STYLE('',(#188));
#169=EDGE_CURVE('',#189,#190,#191,.T.);
#170=EDGE_CURVE('',#189,#192,#193,.T.);
#171=EDGE_CURVE('',#194,#192,#195,.T.);
#172=EDGE_CURVE('',#190,#194,#196,.T.);
#173=FILL_AREA_STYLE('',(#197));
#174=EDGE_CURVE('',#198,#189,#199,.T.);
#175=EDGE_CURVE('',#198,#200,#201,.T.);
#176=EDGE_CURVE('',#192,#200,#202,.T.);
#177=FILL_AREA_STYLE('',(#203));
#178=EDGE_CURVE('',#200,#204,#205,.T.);
#179=EDGE_CURVE('',#204,#198,#206,.T.);
#180=EDGE_CURVE('',#200,#198,#207,.T.);
#181=FILL_AREA_STYLE('',(#208));
#182=FILL_AREA_STYLE('',(#209));
#183=EDGE_CURVE('',#192,#189,#210,.T.);
#184=FILL_AREA_STYLE('',(#211));
#185=EDGE_CURVE('',#194,#190,#212,.T.);
#186=FILL_AREA_STYLE('',(#213));
#187=FILL_AREA_STYLE('',(#214));
#188=FILL_AREA_STYLE_COLOUR('',#215);
#189=VERTEX_POINT('',#216);
#190=VERTEX_POINT('',#217);
#191=LINE('',#218,#219);
#192=VERTEX_POINT('',#220);
#193=CIRCLE('',#221,14.0);
#194=VERTEX_POINT('',#222);
#195=LINE('',#223,#224);
#196=CIRCLE('',#225,14.0);
#197=FILL_AREA_STYLE_COLOUR('',#226);
#198=VERTEX_POINT('',#227);
#199=LINE('',#228,#229);
#200=VERTEX_POINT('',#230);
#201=CIRCLE('',#231,13.0025413);
#202=LINE('',#232,#233);
#203=FILL_AREA_STYLE_COLOUR('',#234);
#204=VERTEX_POINT('',#235);
#205=LINE('',#236,#237);
#206=LINE('',#238,#239);
#207=CIRCLE('',#240,13.0025413);
#208=FILL_AREA_STYLE_COLOUR('',#241);
#209=FILL_AREA_STYLE_COLOUR('',#242);
#210=CIRCLE('',#243,14.0);
#211=FILL_AREA_STYLE_COLOUR('',#244);
#212=CIRCLE('',#245,14.0);
#213=FILL_AREA_STYLE_COLOUR('',#246);
#214=FILL_AREA_STYLE_COLOUR('',#247);
#215=COLOUR_RGB('',0.61176472902298,0.61176472902298,0.650980412960052);
#216=CARTESIAN_POINT('',(-1.0,14.0,0.0));
#217=CARTESIAN_POINT('',(0.0,14.0,0.0));
#218=CARTESIAN_POINT('',(-0.5,14.0,-1.71450551880629E-15));
#219=VECTOR('',#248,1.0);
#220=CARTESIAN_POINT('',(-1.0,-14.0,1.71450551880629E-15));
#221=AXIS2_PLACEMENT_3D('',#249,#250,#251);
#222=CARTESIAN_POINT('',(0.0,-14.0,1.71450551880629E-15));
#223=CARTESIAN_POINT('',(-0.5,-14.0,1.71450551880629E-15));
#224=VECTOR('',#252,1.0);
#225=AXIS2_PLACEMENT_3D('',#253,#254,#255);
#226=COLOUR_RGB('',0.61176472902298,0.61176472902298,0.650980412960052);
#227=CARTESIAN_POINT('',(-2.07124705,13.0025413,0.0));
#228=CARTESIAN_POINT('',(-1.535623525,13.50127065,-1.65342878859446E-15));
#229=VECTOR('',#256,1.0);
#230=CARTESIAN_POINT('',(-2.07124705,-13.0025413,1.59235205838263E-15));
#231=AXIS2_PLACEMENT_3D('',#257,#258,#259);
#232=CARTESIAN_POINT('',(-1.535623525,-13.50127065,1.65342878859446E-15));
#233=VECTOR('',#260,1.0);
#234=COLOUR_RGB('',0.61176472902298,0.61176472902298,0.650980412960052);
#235=CARTESIAN_POINT('',(-3.0,0.0,0.0));
#236=CARTESIAN_POINT('',(-2.535623525,-6.50127065,7.96176029191313E-16));
#237=VECTOR('',#261,1.0);
#238=CARTESIAN_POINT('',(-2.535623525,6.50127065,-7.96176029191313E-16));
#239=VECTOR('',#262,1.0);
#240=AXIS2_PLACEMENT_3D('',#263,#264,#265);
#241=COLOUR_RGB('',0.61176472902298,0.61176472902298,0.650980412960052);
#242=COLOUR_RGB('',0.61176472902298,0.61176472902298,0.650980412960052);
#243=AXIS2_PLACEMENT_3D('',#266,#267,#268);
#244=COLOUR_RGB('',0.61176472902298,0.61176472902298,0.650980412960052);
#245=AXIS2_PLACEMENT_3D('',#269,#270,#271);
#246=COLOUR_RGB('',0.61176472902298,0.61176472902298,0.650980412960052);
#247=COLOUR_RGB('',0.61176472902298,0.61176472902298,0.650980412960052);
#248=DIRECTION('',(1.0,0.0,0.0));
#249=CARTESIAN_POINT('',(-1.0,0.0,0.0));
#250=DIRECTION('',(1.0,0.0,0.0));
#251=DIRECTION('',(0.0,1.0,0.0));
#252=DIRECTION('',(-1.0,-0.0,-0.0));
#253=CARTESIAN_POINT('',(0.0,0.0,0.0));
#254=DIRECTION('',(1.0,0.0,0.0));
#255=DIRECTION('',(0.0,1.0,0.0));
#256=DIRECTION('',(0.731863050655758,0.681451740833383,-8.34537693184994E-17));
#257=CARTESIAN_POINT('',(-2.07124705,0.0,0.0));
#258=DIRECTION('',(1.0,0.0,0.0));
#259=DIRECTION('',(0.0,1.0,0.0));
#260=DIRECTION('',(-0.731863050655758,0.681451740833383,-8.34537693184993E-17));
#261=DIRECTION('',(-0.0712470499879096,0.997458699830735,-1.22153460402939E-16));
#262=DIRECTION('',(0.0712470499879096,0.997458699830735,-1.22153460402939E-16));
#263=CARTESIAN_POINT('',(-2.07124705,0.0,0.0));
#264=DIRECTION('',(1.0,0.0,0.0));
#265=DIRECTION('',(0.0,1.0,0.0));
#266=CARTESIAN_POINT('',(-1.0,0.0,0.0));
#267=DIRECTION('',(1.0,0.0,0.0));
#268=DIRECTION('',(0.0,1.0,0.0));
#269=CARTESIAN_POINT('',(0.0,0.0,0.0));
#270=DIRECTION('',(1.0,0.0,0.0));
#271=DIRECTION('',(0.0,1.0,0.0));
ENDSEC;
END-ISO-10303-21;
