ISO-10303-21;
HEADER;
FILE_DESCRIPTION(('STEP AP214'),'1');
FILE_NAME('cctmp_A223B612-C744-4DFB-8A5B-0F2507C5AD27_2025_01_13_08_42_54_0146_5996..stp','2025-01-13T07:42:54',('Bosch Rexroth AG'),('CADClick - www.CADClick.com'),'Spatial InterOp 3D',' ','unknown authorization - (Healing Option Enabled)');
FILE_SCHEMA(('AUTOMOTIVE_DESIGN'));
ENDSEC;
DATA;
#1=MECHANICAL_DESIGN_GEOMETRIC_PRESENTATION_REPRESENTATION(' ',(#10,#11,#12,#13,#14,#15,#16,#17,#18,#19,#20,#21,#22,#23,#24),#6);
#2=PRODUCT_DEFINITION_CONTEXT('',#25,'design');
#3=APPLICATION_PROTOCOL_DEFINITION('INTERNATIONAL STANDARD','automotive_design',1994,#25);
#4=PRODUCT_CATEGORY_RELATIONSHIP('NONE','NONE',#26,#27);
#5=SHAPE_DEFINITION_REPRESENTATION(#28,#29);
#6= (GEOMETRIC_REPRESENTATION_CONTEXT(3)GLOBAL_UNCERTAINTY_ASSIGNED_CONTEXT((#32))GLOBAL_UNIT_ASSIGNED_CONTEXT((#34,#35,#36))REPRESENTATION_CONTEXT('NONE','WORKSPACE'));
#10=STYLED_ITEM('',(#38),#39);
#11=STYLED_ITEM('',(#40),#41);
#12=STYLED_ITEM('',(#42),#43);
#13=STYLED_ITEM('',(#44),#45);
#14=STYLED_ITEM('',(#46),#47);
#15=STYLED_ITEM('',(#48),#49);
#16=STYLED_ITEM('',(#50),#51);
#17=STYLED_ITEM('',(#52),#53);
#18=STYLED_ITEM('',(#54),#55);
#19=STYLED_ITEM('',(#56),#57);
#20=STYLED_ITEM('',(#58),#59);
#21=STYLED_ITEM('',(#60),#61);
#22=STYLED_ITEM('',(#62),#63);
#23=STYLED_ITEM('',(#64),#65);
#24=STYLED_ITEM('',(#66),#67);
#25=APPLICATION_CONTEXT(' ');
#26=PRODUCT_CATEGORY('part','NONE');
#27=PRODUCT_RELATED_PRODUCT_CATEGORY('detail',' ',(#68));
#28=PRODUCT_DEFINITION_SHAPE('NONE','NONE',#69);
#29=ADVANCED_BREP_SHAPE_REPRESENTATION('2025_01_13_08_42_54_0126',(#67,#70),#6);
#32=UNCERTAINTY_MEASURE_WITH_UNIT(LENGTH_MEASURE(1.0E-06),#34,'','');
#34= (CONVERSION_BASED_UNIT('MILLIMETRE',#73)LENGTH_UNIT()NAMED_UNIT(#76));
#35= (NAMED_UNIT(#78)PLANE_ANGLE_UNIT()SI_UNIT($,.RADIAN.));
#36= (NAMED_UNIT(#78)SOLID_ANGLE_UNIT()SI_UNIT($,.STERADIAN.));
#38=PRESENTATION_STYLE_ASSIGNMENT((#84));
#39=ADVANCED_FACE('',(#85),#86,.F.);
#40=PRESENTATION_STYLE_ASSIGNMENT((#87));
#41=ADVANCED_FACE('',(#88),#89,.T.);
#42=PRESENTATION_STYLE_ASSIGNMENT((#90));
#43=ADVANCED_FACE('',(#91),#92,.T.);
#44=PRESENTATION_STYLE_ASSIGNMENT((#93));
#45=ADVANCED_FACE('',(#94),#95,.T.);
#46=PRESENTATION_STYLE_ASSIGNMENT((#96));
#47=ADVANCED_FACE('',(#97),#98,.T.);
#48=PRESENTATION_STYLE_ASSIGNMENT((#99));
#49=ADVANCED_FACE('',(#100),#101,.T.);
#50=PRESENTATION_STYLE_ASSIGNMENT((#102));
#51=ADVANCED_FACE('',(#103),#104,.T.);
#52=PRESENTATION_STYLE_ASSIGNMENT((#105));
#53=ADVANCED_FACE('',(#106),#107,.F.);
#54=PRESENTATION_STYLE_ASSIGNMENT((#108));
#55=ADVANCED_FACE('',(#109),#110,.F.);
#56=PRESENTATION_STYLE_ASSIGNMENT((#111));
#57=ADVANCED_FACE('',(#112),#113,.F.);
#58=PRESENTATION_STYLE_ASSIGNMENT((#114));
#59=ADVANCED_FACE('',(#115),#116,.T.);
#60=PRESENTATION_STYLE_ASSIGNMENT((#117));
#61=ADVANCED_FACE('',(#118),#119,.T.);
#62=PRESENTATION_STYLE_ASSIGNMENT((#120));
#63=ADVANCED_FACE('',(#121),#122,.T.);
#64=PRESENTATION_STYLE_ASSIGNMENT((#123));
#65=ADVANCED_FACE('',(#124),#125,.T.);
#66=PRESENTATION_STYLE_ASSIGNMENT((#126));
#67=MANIFOLD_SOLID_BREP('2025_01_13_08_42_54_0126',#127);
#68=PRODUCT('2025_01_13_08_42_54_0126','2025_01_13_08_42_54_0126','PART-2025_01_13_08_42_54_0126-DESC',(#128));
#69=PRODUCT_DEFINITION('','NONE',#129,#2);
#70=AXIS2_PLACEMENT_3D('',#130,#131,#132);
#73=LENGTH_MEASURE_WITH_UNIT(LENGTH_MEASURE(1.0),#133);
#76=DIMENSIONAL_EXPONENTS(1.0,0.0,0.0,0.0,0.0,0.0,0.0);
#78=DIMENSIONAL_EXPONENTS(0.0,0.0,0.0,0.0,0.0,0.0,0.0);
#84=SURFACE_STYLE_USAGE(.BOTH.,#134);
#85=FACE_OUTER_BOUND('',#135,.T.);
#86=PLANE('',#136);
#87=SURFACE_STYLE_USAGE(.BOTH.,#137);
#88=FACE_OUTER_BOUND('',#138,.T.);
#89=PLANE('',#139);
#90=SURFACE_STYLE_USAGE(.BOTH.,#140);
#91=FACE_OUTER_BOUND('',#141,.T.);
#92=PLANE('',#142);
#93=SURFACE_STYLE_USAGE(.BOTH.,#143);
#94=FACE_OUTER_BOUND('',#144,.T.);
#95=PLANE('',#145);
#96=SURFACE_STYLE_USAGE(.BOTH.,#146);
#97=FACE_OUTER_BOUND('',#147,.T.);
#98=PLANE('',#148);
#99=SURFACE_STYLE_USAGE(.BOTH.,#149);
#100=FACE_OUTER_BOUND('',#150,.T.);
#101=PLANE('',#151);
#102=SURFACE_STYLE_USAGE(.BOTH.,#152);
#103=FACE_OUTER_BOUND('',#153,.T.);
#104=PLANE('',#154);
#105=SURFACE_STYLE_USAGE(.BOTH.,#155);
#106=FACE_OUTER_BOUND('',#156,.T.);
#107=PLANE('',#157);
#108=SURFACE_STYLE_USAGE(.BOTH.,#158);
#109=FACE_OUTER_BOUND('',#159,.T.);
#110=PLANE('',#160);
#111=SURFACE_STYLE_USAGE(.BOTH.,#161);
#112=FACE_OUTER_BOUND('',#162,.T.);
#113=PLANE('',#163);
#114=SURFACE_STYLE_USAGE(.BOTH.,#164);
#115=FACE_OUTER_BOUND('',#165,.T.);
#116=PLANE('',#166);
#117=SURFACE_STYLE_USAGE(.BOTH.,#167);
#118=FACE_OUTER_BOUND('',#168,.T.);
#119=PLANE('',#169);
#120=SURFACE_STYLE_USAGE(.BOTH.,#170);
#121=FACE_OUTER_BOUND('',#171,.T.);
#122=PLANE('',#172);
#123=SURFACE_STYLE_USAGE(.BOTH.,#173);
#124=FACE_OUTER_BOUND('',#174,.T.);
#125=PLANE('',#175);
#126=SURFACE_STYLE_USAGE(.BOTH.,#176);
#127=CLOSED_SHELL('',(#39,#41,#43,#45,#47,#49,#51,#53,#55,#57,#59,#61,#63,#65));
#128=PRODUCT_CONTEXT('',#25,'mechanical');
#129=PRODUCT_DEFINITION_FORMATION_WITH_SPECIFIED_SOURCE(' ','NONE',#68,.NOT_KNOWN.);
#130=CARTESIAN_POINT('',(0.0,0.0,0.0));
#131=DIRECTION('',(0.0,0.0,1.0));
#132=DIRECTION('',(1.0,0.0,0.0));
#133= (NAMED_UNIT(#76)LENGTH_UNIT()SI_UNIT(.MILLI.,.METRE.));
#134=SURFACE_SIDE_STYLE('',(#178));
#135=EDGE_LOOP('',(#179,#180,#181,#182,#183,#184,#185,#186,#187,#188,#189,#190));
#136=AXIS2_PLACEMENT_3D('',#191,#192,#193);
#137=SURFACE_SIDE_STYLE('',(#194));
#138=EDGE_LOOP('',(#195,#196,#197,#198));
#139=AXIS2_PLACEMENT_3D('',#199,#200,#201);
#140=SURFACE_SIDE_STYLE('',(#202));
#141=EDGE_LOOP('',(#203,#204,#205,#206));
#142=AXIS2_PLACEMENT_3D('',#207,#208,#209);
#143=SURFACE_SIDE_STYLE('',(#210));
#144=EDGE_LOOP('',(#211,#212,#213,#214));
#145=AXIS2_PLACEMENT_3D('',#215,#216,#217);
#146=SURFACE_SIDE_STYLE('',(#218));
#147=EDGE_LOOP('',(#219,#220,#221,#222,#223,#224,#225,#226,#227,#228,#229,#230));
#148=AXIS2_PLACEMENT_3D('',#231,#232,#233);
#149=SURFACE_SIDE_STYLE('',(#234));
#150=EDGE_LOOP('',(#235,#236,#237,#238));
#151=AXIS2_PLACEMENT_3D('',#239,#240,#241);
#152=SURFACE_SIDE_STYLE('',(#242));
#153=EDGE_LOOP('',(#243,#244,#245,#246));
#154=AXIS2_PLACEMENT_3D('',#247,#248,#249);
#155=SURFACE_SIDE_STYLE('',(#250));
#156=EDGE_LOOP('',(#251,#252,#253,#254));
#157=AXIS2_PLACEMENT_3D('',#255,#256,#257);
#158=SURFACE_SIDE_STYLE('',(#258));
#159=EDGE_LOOP('',(#259,#260,#261,#262));
#160=AXIS2_PLACEMENT_3D('',#263,#264,#265);
#161=SURFACE_SIDE_STYLE('',(#266));
#162=EDGE_LOOP('',(#267,#268,#269,#270));
#163=AXIS2_PLACEMENT_3D('',#271,#272,#273);
#164=SURFACE_SIDE_STYLE('',(#274));
#165=EDGE_LOOP('',(#275,#276,#277,#278));
#166=AXIS2_PLACEMENT_3D('',#279,#280,#281);
#167=SURFACE_SIDE_STYLE('',(#282));
#168=EDGE_LOOP('',(#283,#284,#285,#286));
#169=AXIS2_PLACEMENT_3D('',#287,#288,#289);
#170=SURFACE_SIDE_STYLE('',(#290));
#171=EDGE_LOOP('',(#291,#292,#293,#294));
#172=AXIS2_PLACEMENT_3D('',#295,#296,#297);
#173=SURFACE_SIDE_STYLE('',(#298));
#174=EDGE_LOOP('',(#299,#300,#301,#302));
#175=AXIS2_PLACEMENT_3D('',#303,#304,#305);
#176=SURFACE_SIDE_STYLE('',(#306));
#178=SURFACE_STYLE_FILL_AREA(#307);
#179=ORIENTED_EDGE('',*,*,#308,.T.);
#180=ORIENTED_EDGE('',*,*,#309,.T.);
#181=ORIENTED_EDGE('',*,*,#310,.T.);
#182=ORIENTED_EDGE('',*,*,#311,.T.);
#183=ORIENTED_EDGE('',*,*,#312,.T.);
#184=ORIENTED_EDGE('',*,*,#313,.T.);
#185=ORIENTED_EDGE('',*,*,#314,.T.);
#186=ORIENTED_EDGE('',*,*,#315,.T.);
#187=ORIENTED_EDGE('',*,*,#316,.T.);
#188=ORIENTED_EDGE('',*,*,#317,.F.);
#189=ORIENTED_EDGE('',*,*,#318,.T.);
#190=ORIENTED_EDGE('',*,*,#319,.T.);
#191=CARTESIAN_POINT('',(-40.0,12.3,0.0));
#192=DIRECTION('',(1.0,6.12323399573677E-17,6.12323399573677E-17));
#193=DIRECTION('',(-6.12323399573677E-17,1.0,0.0));
#194=SURFACE_STYLE_FILL_AREA(#320);
#195=ORIENTED_EDGE('',*,*,#312,.F.);
#196=ORIENTED_EDGE('',*,*,#321,.T.);
#197=ORIENTED_EDGE('',*,*,#322,.F.);
#198=ORIENTED_EDGE('',*,*,#323,.F.);
#199=CARTESIAN_POINT('',(-40.0,2.8,47.0));
#200=DIRECTION('',(6.12323399573677E-17,-1.0,3.74939945665464E-33));
#201=DIRECTION('',(0.0,3.74939945665464E-33,1.0));
#202=SURFACE_STYLE_FILL_AREA(#324);
#203=ORIENTED_EDGE('',*,*,#325,.F.);
#204=ORIENTED_EDGE('',*,*,#326,.F.);
#205=ORIENTED_EDGE('',*,*,#308,.F.);
#206=ORIENTED_EDGE('',*,*,#327,.T.);
#207=CARTESIAN_POINT('',(-40.0,2.8,47.0));
#208=DIRECTION('',(6.12323399573677E-17,-1.0,3.74939945665464E-33));
#209=DIRECTION('',(0.0,3.74939945665464E-33,1.0));
#210=SURFACE_STYLE_FILL_AREA(#328);
#211=ORIENTED_EDGE('',*,*,#329,.F.);
#212=ORIENTED_EDGE('',*,*,#330,.F.);
#213=ORIENTED_EDGE('',*,*,#313,.F.);
#214=ORIENTED_EDGE('',*,*,#323,.T.);
#215=CARTESIAN_POINT('',(-40.0,-28.0,-26.6));
#216=DIRECTION('',(6.12323399573677E-17,0.0,-1.0));
#217=DIRECTION('',(1.0,0.0,6.12323399573677E-17));
#218=SURFACE_STYLE_FILL_AREA(#331);
#219=ORIENTED_EDGE('',*,*,#329,.T.);
#220=ORIENTED_EDGE('',*,*,#322,.T.);
#221=ORIENTED_EDGE('',*,*,#332,.F.);
#222=ORIENTED_EDGE('',*,*,#333,.T.);
#223=ORIENTED_EDGE('',*,*,#334,.T.);
#224=ORIENTED_EDGE('',*,*,#325,.T.);
#225=ORIENTED_EDGE('',*,*,#335,.T.);
#226=ORIENTED_EDGE('',*,*,#336,.T.);
#227=ORIENTED_EDGE('',*,*,#337,.T.);
#228=ORIENTED_EDGE('',*,*,#338,.F.);
#229=ORIENTED_EDGE('',*,*,#339,.F.);
#230=ORIENTED_EDGE('',*,*,#340,.T.);
#231=CARTESIAN_POINT('',(40.0000000000001,12.3,0.0));
#232=DIRECTION('',(1.0,6.12323399573677E-17,6.12323399573677E-17));
#233=DIRECTION('',(-6.12323399573677E-17,1.0,0.0));
#234=SURFACE_STYLE_FILL_AREA(#341);
#235=ORIENTED_EDGE('',*,*,#340,.F.);
#236=ORIENTED_EDGE('',*,*,#342,.F.);
#237=ORIENTED_EDGE('',*,*,#314,.F.);
#238=ORIENTED_EDGE('',*,*,#330,.T.);
#239=CARTESIAN_POINT('',(-40.0,-28.0,26.6));
#240=DIRECTION('',(6.12323399573677E-17,-1.0,3.74939945665464E-33));
#241=DIRECTION('',(0.0,3.74939945665464E-33,1.0));
#242=SURFACE_STYLE_FILL_AREA(#343);
#243=ORIENTED_EDGE('',*,*,#318,.F.);
#244=ORIENTED_EDGE('',*,*,#344,.T.);
#245=ORIENTED_EDGE('',*,*,#336,.F.);
#246=ORIENTED_EDGE('',*,*,#345,.F.);
#247=CARTESIAN_POINT('',(-40.0,-28.0,26.6));
#248=DIRECTION('',(6.12323399573677E-17,-1.0,3.74939945665464E-33));
#249=DIRECTION('',(0.0,3.74939945665464E-33,1.0));
#250=SURFACE_STYLE_FILL_AREA(#346);
#251=ORIENTED_EDGE('',*,*,#315,.F.);
#252=ORIENTED_EDGE('',*,*,#342,.T.);
#253=ORIENTED_EDGE('',*,*,#339,.T.);
#254=ORIENTED_EDGE('',*,*,#347,.T.);
#255=CARTESIAN_POINT('',(40.0000000000001,-28.0,-20.2));
#256=DIRECTION('',(6.12323399573677E-17,0.0,-1.0));
#257=DIRECTION('',(1.0,0.0,6.12323399573677E-17));
#258=SURFACE_STYLE_FILL_AREA(#348);
#259=ORIENTED_EDGE('',*,*,#316,.F.);
#260=ORIENTED_EDGE('',*,*,#347,.F.);
#261=ORIENTED_EDGE('',*,*,#338,.T.);
#262=ORIENTED_EDGE('',*,*,#349,.T.);
#263=CARTESIAN_POINT('',(40.0000000000001,5.20000000000001,-20.2));
#264=DIRECTION('',(-6.12323399573677E-17,1.0,-3.74939945665464E-33));
#265=DIRECTION('',(1.0,6.12323399573677E-17,0.0));
#266=SURFACE_STYLE_FILL_AREA(#350);
#267=ORIENTED_EDGE('',*,*,#317,.T.);
#268=ORIENTED_EDGE('',*,*,#349,.F.);
#269=ORIENTED_EDGE('',*,*,#337,.F.);
#270=ORIENTED_EDGE('',*,*,#344,.F.);
#271=CARTESIAN_POINT('',(40.0000000000001,5.20000000000001,20.2));
#272=DIRECTION('',(-6.12323399573677E-17,0.0,1.0));
#273=DIRECTION('',(-1.0,0.0,-6.12323399573677E-17));
#274=SURFACE_STYLE_FILL_AREA(#351);
#275=ORIENTED_EDGE('',*,*,#319,.F.);
#276=ORIENTED_EDGE('',*,*,#345,.T.);
#277=ORIENTED_EDGE('',*,*,#335,.F.);
#278=ORIENTED_EDGE('',*,*,#327,.F.);
#279=CARTESIAN_POINT('',(-40.0,2.8,26.6));
#280=DIRECTION('',(-6.12323399573677E-17,0.0,1.0));
#281=DIRECTION('',(-1.0,0.0,-6.12323399573677E-17));
#282=SURFACE_STYLE_FILL_AREA(#352);
#283=ORIENTED_EDGE('',*,*,#309,.F.);
#284=ORIENTED_EDGE('',*,*,#326,.T.);
#285=ORIENTED_EDGE('',*,*,#334,.F.);
#286=ORIENTED_EDGE('',*,*,#353,.F.);
#287=CARTESIAN_POINT('',(-40.0,12.3,47.0));
#288=DIRECTION('',(-6.12323399573677E-17,0.0,1.0));
#289=DIRECTION('',(-1.0,0.0,-6.12323399573677E-17));
#290=SURFACE_STYLE_FILL_AREA(#354);
#291=ORIENTED_EDGE('',*,*,#333,.F.);
#292=ORIENTED_EDGE('',*,*,#355,.F.);
#293=ORIENTED_EDGE('',*,*,#310,.F.);
#294=ORIENTED_EDGE('',*,*,#353,.T.);
#295=CARTESIAN_POINT('',(-40.0,12.3,-47.0));
#296=DIRECTION('',(-6.12323399573677E-17,1.0,-3.74939945665464E-33));
#297=DIRECTION('',(1.0,6.12323399573677E-17,0.0));
#298=SURFACE_STYLE_FILL_AREA(#356);
#299=ORIENTED_EDGE('',*,*,#311,.F.);
#300=ORIENTED_EDGE('',*,*,#355,.T.);
#301=ORIENTED_EDGE('',*,*,#332,.T.);
#302=ORIENTED_EDGE('',*,*,#321,.F.);
#303=CARTESIAN_POINT('',(-40.0,2.8,-47.0));
#304=DIRECTION('',(6.12323399573677E-17,0.0,-1.0));
#305=DIRECTION('',(1.0,0.0,6.12323399573677E-17));
#306=SURFACE_STYLE_FILL_AREA(#357);
#307=FILL_AREA_STYLE('',(#358));
#308=EDGE_CURVE('',#359,#360,#361,.T.);
#309=EDGE_CURVE('',#360,#362,#363,.T.);
#310=EDGE_CURVE('',#362,#364,#365,.T.);
#311=EDGE_CURVE('',#364,#366,#367,.T.);
#312=EDGE_CURVE('',#366,#368,#369,.T.);
#313=EDGE_CURVE('',#368,#370,#371,.T.);
#314=EDGE_CURVE('',#370,#372,#373,.T.);
#315=EDGE_CURVE('',#372,#374,#375,.T.);
#316=EDGE_CURVE('',#374,#376,#377,.T.);
#317=EDGE_CURVE('',#378,#376,#379,.T.);
#318=EDGE_CURVE('',#378,#380,#381,.T.);
#319=EDGE_CURVE('',#380,#359,#382,.T.);
#320=FILL_AREA_STYLE('',(#383));
#321=EDGE_CURVE('',#366,#384,#385,.T.);
#322=EDGE_CURVE('',#386,#384,#387,.T.);
#323=EDGE_CURVE('',#368,#386,#388,.T.);
#324=FILL_AREA_STYLE('',(#389));
#325=EDGE_CURVE('',#390,#391,#392,.T.);
#326=EDGE_CURVE('',#360,#390,#393,.T.);
#327=EDGE_CURVE('',#359,#391,#394,.T.);
#328=FILL_AREA_STYLE('',(#395));
#329=EDGE_CURVE('',#396,#386,#397,.T.);
#330=EDGE_CURVE('',#370,#396,#398,.T.);
#331=FILL_AREA_STYLE('',(#399));
#332=EDGE_CURVE('',#400,#384,#401,.T.);
#333=EDGE_CURVE('',#400,#402,#403,.T.);
#334=EDGE_CURVE('',#402,#390,#404,.T.);
#335=EDGE_CURVE('',#391,#405,#406,.T.);
#336=EDGE_CURVE('',#405,#407,#408,.T.);
#337=EDGE_CURVE('',#407,#409,#410,.T.);
#338=EDGE_CURVE('',#411,#409,#412,.T.);
#339=EDGE_CURVE('',#413,#411,#414,.T.);
#340=EDGE_CURVE('',#413,#396,#415,.T.);
#341=FILL_AREA_STYLE('',(#416));
#342=EDGE_CURVE('',#372,#413,#417,.T.);
#343=FILL_AREA_STYLE('',(#418));
#344=EDGE_CURVE('',#378,#407,#419,.T.);
#345=EDGE_CURVE('',#380,#405,#420,.T.);
#346=FILL_AREA_STYLE('',(#421));
#347=EDGE_CURVE('',#411,#374,#422,.T.);
#348=FILL_AREA_STYLE('',(#423));
#349=EDGE_CURVE('',#409,#376,#424,.T.);
#350=FILL_AREA_STYLE('',(#425));
#351=FILL_AREA_STYLE('',(#426));
#352=FILL_AREA_STYLE('',(#427));
#353=EDGE_CURVE('',#362,#402,#428,.T.);
#354=FILL_AREA_STYLE('',(#429));
#355=EDGE_CURVE('',#364,#400,#430,.T.);
#356=FILL_AREA_STYLE('',(#431));
#357=FILL_AREA_STYLE('',(#432));
#358=FILL_AREA_STYLE_COLOUR('',#433);
#359=VERTEX_POINT('',#434);
#360=VERTEX_POINT('',#435);
#361=LINE('',#436,#437);
#362=VERTEX_POINT('',#438);
#363=LINE('',#439,#440);
#364=VERTEX_POINT('',#441);
#365=LINE('',#442,#443);
#366=VERTEX_POINT('',#444);
#367=LINE('',#445,#446);
#368=VERTEX_POINT('',#447);
#369=LINE('',#448,#449);
#370=VERTEX_POINT('',#450);
#371=LINE('',#451,#452);
#372=VERTEX_POINT('',#453);
#373=LINE('',#454,#455);
#374=VERTEX_POINT('',#456);
#375=LINE('',#457,#458);
#376=VERTEX_POINT('',#459);
#377=LINE('',#460,#461);
#378=VERTEX_POINT('',#462);
#379=LINE('',#463,#464);
#380=VERTEX_POINT('',#465);
#381=LINE('',#466,#467);
#382=LINE('',#468,#469);
#383=FILL_AREA_STYLE_COLOUR('',#470);
#384=VERTEX_POINT('',#471);
#385=LINE('',#472,#473);
#386=VERTEX_POINT('',#474);
#387=LINE('',#475,#476);
#388=LINE('',#477,#478);
#389=FILL_AREA_STYLE_COLOUR('',#479);
#390=VERTEX_POINT('',#480);
#391=VERTEX_POINT('',#481);
#392=LINE('',#482,#483);
#393=LINE('',#484,#485);
#394=LINE('',#486,#487);
#395=FILL_AREA_STYLE_COLOUR('',#488);
#396=VERTEX_POINT('',#489);
#397=LINE('',#490,#491);
#398=LINE('',#492,#493);
#399=FILL_AREA_STYLE_COLOUR('',#494);
#400=VERTEX_POINT('',#495);
#401=LINE('',#496,#497);
#402=VERTEX_POINT('',#498);
#403=LINE('',#499,#500);
#404=LINE('',#501,#502);
#405=VERTEX_POINT('',#503);
#406=LINE('',#504,#505);
#407=VERTEX_POINT('',#506);
#408=LINE('',#507,#508);
#409=VERTEX_POINT('',#509);
#410=LINE('',#510,#511);
#411=VERTEX_POINT('',#512);
#412=LINE('',#513,#514);
#413=VERTEX_POINT('',#515);
#414=LINE('',#516,#517);
#415=LINE('',#518,#519);
#416=FILL_AREA_STYLE_COLOUR('',#520);
#417=LINE('',#521,#522);
#418=FILL_AREA_STYLE_COLOUR('',#523);
#419=LINE('',#524,#525);
#420=LINE('',#526,#527);
#421=FILL_AREA_STYLE_COLOUR('',#528);
#422=LINE('',#529,#530);
#423=FILL_AREA_STYLE_COLOUR('',#531);
#424=LINE('',#532,#533);
#425=FILL_AREA_STYLE_COLOUR('',#534);
#426=FILL_AREA_STYLE_COLOUR('',#535);
#427=FILL_AREA_STYLE_COLOUR('',#536);
#428=LINE('',#537,#538);
#429=FILL_AREA_STYLE_COLOUR('',#539);
#430=LINE('',#540,#541);
#431=FILL_AREA_STYLE_COLOUR('',#542);
#432=FILL_AREA_STYLE_COLOUR('',#543);
#433=COLOUR_RGB('',0.749019622802734,0.749019622802734,0.749019622802734);
#434=CARTESIAN_POINT('',(-40.0,2.8,26.6));
#435=CARTESIAN_POINT('',(-40.0,2.8,47.0));
#436=CARTESIAN_POINT('',(-40.0,2.8,26.6));
#437=VECTOR('',#544,20.4);
#438=CARTESIAN_POINT('',(-40.0,12.3,47.0));
#439=CARTESIAN_POINT('',(-40.0,2.8,47.0));
#440=VECTOR('',#545,9.5);
#441=CARTESIAN_POINT('',(-40.0,12.3,-47.0));
#442=CARTESIAN_POINT('',(-40.0,12.3,47.0));
#443=VECTOR('',#546,94.0);
#444=CARTESIAN_POINT('',(-40.0,2.8,-47.0));
#445=CARTESIAN_POINT('',(-40.0,12.3,-47.0));
#446=VECTOR('',#547,9.5);
#447=CARTESIAN_POINT('',(-40.0,2.8,-26.6));
#448=CARTESIAN_POINT('',(-40.0,2.8,-47.0));
#449=VECTOR('',#548,20.4);
#450=CARTESIAN_POINT('',(-40.0,-28.0,-26.6));
#451=CARTESIAN_POINT('',(-40.0,2.8,-26.6));
#452=VECTOR('',#549,30.8);
#453=CARTESIAN_POINT('',(-40.0,-28.0,-20.2));
#454=CARTESIAN_POINT('',(-40.0,-28.0,-26.6));
#455=VECTOR('',#550,6.4);
#456=CARTESIAN_POINT('',(-40.0,5.2,-20.2));
#457=CARTESIAN_POINT('',(-40.0,-28.0,-20.2));
#458=VECTOR('',#551,33.2);
#459=CARTESIAN_POINT('',(-40.0,5.2,20.2));
#460=CARTESIAN_POINT('',(-40.0,5.2,-20.2));
#461=VECTOR('',#552,40.4);
#462=CARTESIAN_POINT('',(-40.0,-28.0,20.2));
#463=CARTESIAN_POINT('',(-40.0,-28.0,20.2));
#464=VECTOR('',#553,33.2);
#465=CARTESIAN_POINT('',(-40.0,-28.0,26.6));
#466=CARTESIAN_POINT('',(-40.0,-28.0,20.2));
#467=VECTOR('',#554,6.4);
#468=CARTESIAN_POINT('',(-40.0,-28.0,26.6));
#469=VECTOR('',#555,30.8);
#470=COLOUR_RGB('',0.749019622802734,0.749019622802734,0.749019622802734);
#471=CARTESIAN_POINT('',(40.0000000000001,2.80000000000001,-47.0));
#472=CARTESIAN_POINT('',(-40.0,2.8,-47.0));
#473=VECTOR('',#556,80.0);
#474=CARTESIAN_POINT('',(40.0000000000001,2.80000000000001,-26.6));
#475=CARTESIAN_POINT('',(40.0000000000001,2.80000000000001,-26.6));
#476=VECTOR('',#557,20.4);
#477=CARTESIAN_POINT('',(-40.0,2.8,-26.6));
#478=VECTOR('',#558,80.0);
#479=COLOUR_RGB('',0.749019622802734,0.749019622802734,0.749019622802734);
#480=CARTESIAN_POINT('',(40.0000000000001,2.80000000000001,47.0));
#481=CARTESIAN_POINT('',(40.0000000000001,2.80000000000001,26.6));
#482=CARTESIAN_POINT('',(40.0000000000001,2.80000000000001,47.0));
#483=VECTOR('',#559,20.4);
#484=CARTESIAN_POINT('',(-40.0,2.8,47.0));
#485=VECTOR('',#560,80.0);
#486=CARTESIAN_POINT('',(-40.0,2.8,26.6));
#487=VECTOR('',#561,80.0);
#488=COLOUR_RGB('',0.749019622802734,0.749019622802734,0.749019622802734);
#489=CARTESIAN_POINT('',(40.0000000000001,-28.0,-26.6));
#490=CARTESIAN_POINT('',(40.0000000000001,-28.0,-26.6));
#491=VECTOR('',#562,30.8);
#492=CARTESIAN_POINT('',(-40.0,-28.0,-26.6));
#493=VECTOR('',#563,80.0);
#494=COLOUR_RGB('',0.749019622802734,0.749019622802734,0.749019622802734);
#495=CARTESIAN_POINT('',(40.0000000000001,12.3,-47.0));
#496=CARTESIAN_POINT('',(40.0000000000001,12.3,-47.0));
#497=VECTOR('',#564,9.5);
#498=CARTESIAN_POINT('',(40.0000000000001,12.3,47.0));
#499=CARTESIAN_POINT('',(40.0000000000001,12.3,-47.0));
#500=VECTOR('',#565,94.0);
#501=CARTESIAN_POINT('',(40.0000000000001,12.3,47.0));
#502=VECTOR('',#566,9.5);
#503=CARTESIAN_POINT('',(40.0000000000001,-28.0,26.6));
#504=CARTESIAN_POINT('',(40.0000000000001,2.80000000000001,26.6));
#505=VECTOR('',#567,30.8);
#506=CARTESIAN_POINT('',(40.0000000000001,-28.0,20.2));
#507=CARTESIAN_POINT('',(40.0000000000001,-28.0,26.6));
#508=VECTOR('',#568,6.4);
#509=CARTESIAN_POINT('',(40.0000000000001,5.20000000000001,20.2));
#510=CARTESIAN_POINT('',(40.0000000000001,-28.0,20.2));
#511=VECTOR('',#569,33.2);
#512=CARTESIAN_POINT('',(40.0000000000001,5.20000000000001,-20.2));
#513=CARTESIAN_POINT('',(40.0000000000001,5.20000000000001,-20.2));
#514=VECTOR('',#570,40.4);
#515=CARTESIAN_POINT('',(40.0000000000001,-28.0,-20.2));
#516=CARTESIAN_POINT('',(40.0000000000001,-28.0,-20.2));
#517=VECTOR('',#571,33.2);
#518=CARTESIAN_POINT('',(40.0000000000001,-28.0,-20.2));
#519=VECTOR('',#572,6.4);
#520=COLOUR_RGB('',0.749019622802734,0.749019622802734,0.749019622802734);
#521=CARTESIAN_POINT('',(-40.0,-28.0,-20.2));
#522=VECTOR('',#573,80.0);
#523=COLOUR_RGB('',0.749019622802734,0.749019622802734,0.749019622802734);
#524=CARTESIAN_POINT('',(-40.0,-28.0,20.2));
#525=VECTOR('',#574,80.0);
#526=CARTESIAN_POINT('',(-40.0,-28.0,26.6));
#527=VECTOR('',#575,80.0);
#528=COLOUR_RGB('',0.749019622802734,0.749019622802734,0.749019622802734);
#529=CARTESIAN_POINT('',(40.0000000000001,5.20000000000001,-20.2));
#530=VECTOR('',#576,80.0);
#531=COLOUR_RGB('',0.749019622802734,0.749019622802734,0.749019622802734);
#532=CARTESIAN_POINT('',(40.0000000000001,5.20000000000001,20.2));
#533=VECTOR('',#577,80.0);
#534=COLOUR_RGB('',0.749019622802734,0.749019622802734,0.749019622802734);
#535=COLOUR_RGB('',0.749019622802734,0.749019622802734,0.749019622802734);
#536=COLOUR_RGB('',0.749019622802734,0.749019622802734,0.749019622802734);
#537=CARTESIAN_POINT('',(-40.0,12.3,47.0));
#538=VECTOR('',#578,80.0);
#539=COLOUR_RGB('',0.749019622802734,0.749019622802734,0.749019622802734);
#540=CARTESIAN_POINT('',(-40.0,12.3,-47.0));
#541=VECTOR('',#579,80.0);
#542=COLOUR_RGB('',0.749019622802734,0.749019622802734,0.749019622802734);
#543=COLOUR_RGB('',0.749019622802734,0.749019622802734,0.749019622802734);
#544=DIRECTION('',(-6.12323399573677E-17,0.0,1.0));
#545=DIRECTION('',(-6.12323399573677E-17,1.0,-3.74939945665464E-33));
#546=DIRECTION('',(6.12323399573676E-17,0.0,-1.0));
#547=DIRECTION('',(6.12323399573677E-17,-1.0,3.74939945665464E-33));
#548=DIRECTION('',(-6.12323399573677E-17,0.0,1.0));
#549=DIRECTION('',(6.12323399573677E-17,-1.0,3.74939945665464E-33));
#550=DIRECTION('',(-6.12323399573677E-17,0.0,1.0));
#551=DIRECTION('',(-6.12323399573677E-17,1.0,-3.74939945665464E-33));
#552=DIRECTION('',(-6.12323399573677E-17,0.0,1.0));
#553=DIRECTION('',(-6.12323399573677E-17,1.0,-3.74939945665464E-33));
#554=DIRECTION('',(-6.12323399573677E-17,0.0,1.0));
#555=DIRECTION('',(-6.12323399573677E-17,1.0,-3.74939945665464E-33));
#556=DIRECTION('',(1.0,6.12323399573677E-17,6.12323399573677E-17));
#557=DIRECTION('',(6.12323399573677E-17,0.0,-1.0));
#558=DIRECTION('',(1.0,6.12323399573677E-17,6.12323399573677E-17));
#559=DIRECTION('',(6.12323399573677E-17,0.0,-1.0));
#560=DIRECTION('',(1.0,6.12323399573677E-17,6.12323399573677E-17));
#561=DIRECTION('',(1.0,6.12323399573677E-17,6.12323399573677E-17));
#562=DIRECTION('',(-6.12323399573677E-17,1.0,-3.74939945665464E-33));
#563=DIRECTION('',(1.0,6.12323399573677E-17,6.12323399573677E-17));
#564=DIRECTION('',(6.12323399573677E-17,-1.0,3.74939945665464E-33));
#565=DIRECTION('',(-6.12323399573676E-17,0.0,1.0));
#566=DIRECTION('',(6.12323399573677E-17,-1.0,3.74939945665464E-33));
#567=DIRECTION('',(6.12323399573677E-17,-1.0,3.74939945665464E-33));
#568=DIRECTION('',(6.12323399573677E-17,0.0,-1.0));
#569=DIRECTION('',(-6.12323399573677E-17,1.0,-3.74939945665464E-33));
#570=DIRECTION('',(-6.12323399573677E-17,0.0,1.0));
#571=DIRECTION('',(-6.12323399573677E-17,1.0,-3.74939945665464E-33));
#572=DIRECTION('',(6.12323399573677E-17,0.0,-1.0));
#573=DIRECTION('',(1.0,6.12323399573677E-17,6.12323399573677E-17));
#574=DIRECTION('',(1.0,6.12323399573677E-17,6.12323399573677E-17));
#575=DIRECTION('',(1.0,6.12323399573677E-17,6.12323399573677E-17));
#576=DIRECTION('',(-1.0,-6.12323399573677E-17,-6.12323399573677E-17));
#577=DIRECTION('',(-1.0,-6.12323399573677E-17,-6.12323399573677E-17));
#578=DIRECTION('',(1.0,6.12323399573677E-17,6.12323399573677E-17));
#579=DIRECTION('',(1.0,6.12323399573677E-17,6.12323399573677E-17));
ENDSEC;
END-ISO-10303-21;
