ISO-10303-21;
HEADER;
FILE_DESCRIPTION(('STEP AP214'),'1');
FILE_NAME('cctmp_153AE89B-BAB0-4E3C-9B6E-47C38BC5711E_2024_12_16_15_28_27_0141_10544..stp','2024-12-16T14:28:27',('Bosch Rexroth AG'),('CADClick - www.CADClick.com'),'Spatial InterOp 3D',' ','unknown authorization - (Healing Option Enabled)');
FILE_SCHEMA(('AUTOMOTIVE_DESIGN'));
ENDSEC;
DATA;
#1=MECHANICAL_DESIGN_GEOMETRIC_PRESENTATION_REPRESENTATION(' ',(#10,#11,#12,#13,#14,#15,#16,#17,#18,#19,#20,#21,#22),#6);
#2=PRODUCT_DEFINITION_CONTEXT('',#23,'design');
#3=APPLICATION_PROTOCOL_DEFINITION('INTERNATIONAL STANDARD','automotive_design',1994,#23);
#4=PRODUCT_CATEGORY_RELATIONSHIP('NONE','NONE',#24,#25);
#5=SHAPE_DEFINITION_REPRESENTATION(#26,#27);
#6= (GEOMETRIC_REPRESENTATION_CONTEXT(3)GLOBAL_UNCERTAINTY_ASSIGNED_CONTEXT((#30))GLOBAL_UNIT_ASSIGNED_CONTEXT((#32,#33,#34))REPRESENTATION_CONTEXT('NONE','WORKSPACE'));
#10=STYLED_ITEM('',(#36),#37);
#11=STYLED_ITEM('',(#38),#39);
#12=STYLED_ITEM('',(#40),#41);
#13=STYLED_ITEM('',(#42),#43);
#14=STYLED_ITEM('',(#44),#45);
#15=STYLED_ITEM('',(#46),#47);
#16=STYLED_ITEM('',(#48),#49);
#17=STYLED_ITEM('',(#50),#51);
#18=STYLED_ITEM('',(#52),#53);
#19=STYLED_ITEM('',(#54),#55);
#20=STYLED_ITEM('',(#56),#57);
#21=STYLED_ITEM('',(#58),#59);
#22=STYLED_ITEM('',(#60),#61);
#23=APPLICATION_CONTEXT(' ');
#24=PRODUCT_CATEGORY('part','NONE');
#25=PRODUCT_RELATED_PRODUCT_CATEGORY('detail',' ',(#62));
#26=PRODUCT_DEFINITION_SHAPE('NONE','NONE',#63);
#27=ADVANCED_BREP_SHAPE_REPRESENTATION('2024_12_16_15_28_27_0125',(#61,#64),#6);
#30=UNCERTAINTY_MEASURE_WITH_UNIT(LENGTH_MEASURE(1.0E-06),#32,'','');
#32= (CONVERSION_BASED_UNIT('MILLIMETRE',#67)LENGTH_UNIT()NAMED_UNIT(#70));
#33= (NAMED_UNIT(#72)PLANE_ANGLE_UNIT()SI_UNIT($,.RADIAN.));
#34= (NAMED_UNIT(#72)SOLID_ANGLE_UNIT()SI_UNIT($,.STERADIAN.));
#36=PRESENTATION_STYLE_ASSIGNMENT((#78));
#37=ADVANCED_FACE('',(#79),#80,.T.);
#38=PRESENTATION_STYLE_ASSIGNMENT((#81));
#39=ADVANCED_FACE('',(#82),#83,.T.);
#40=PRESENTATION_STYLE_ASSIGNMENT((#84));
#41=ADVANCED_FACE('',(#85),#86,.T.);
#42=PRESENTATION_STYLE_ASSIGNMENT((#87));
#43=ADVANCED_FACE('',(#88),#89,.T.);
#44=PRESENTATION_STYLE_ASSIGNMENT((#90));
#45=ADVANCED_FACE('',(#91),#92,.T.);
#46=PRESENTATION_STYLE_ASSIGNMENT((#93));
#47=ADVANCED_FACE('',(#94),#95,.T.);
#48=PRESENTATION_STYLE_ASSIGNMENT((#96));
#49=ADVANCED_FACE('',(#97),#98,.T.);
#50=PRESENTATION_STYLE_ASSIGNMENT((#99));
#51=ADVANCED_FACE('',(#100),#101,.T.);
#52=PRESENTATION_STYLE_ASSIGNMENT((#102));
#53=ADVANCED_FACE('',(#103),#104,.T.);
#54=PRESENTATION_STYLE_ASSIGNMENT((#105));
#55=ADVANCED_FACE('',(#106),#107,.T.);
#56=PRESENTATION_STYLE_ASSIGNMENT((#108));
#57=ADVANCED_FACE('',(#109),#110,.F.);
#58=PRESENTATION_STYLE_ASSIGNMENT((#111));
#59=ADVANCED_FACE('',(#112),#113,.T.);
#60=PRESENTATION_STYLE_ASSIGNMENT((#114));
#61=MANIFOLD_SOLID_BREP('2024_12_16_15_28_27_0125',#115);
#62=PRODUCT('2024_12_16_15_28_27_0125','2024_12_16_15_28_27_0125','PART-2024_12_16_15_28_27_0125-DESC',(#116));
#63=PRODUCT_DEFINITION('','NONE',#117,#2);
#64=AXIS2_PLACEMENT_3D('',#118,#119,#120);
#67=LENGTH_MEASURE_WITH_UNIT(LENGTH_MEASURE(1.0),#121);
#70=DIMENSIONAL_EXPONENTS(1.0,0.0,0.0,0.0,0.0,0.0,0.0);
#72=DIMENSIONAL_EXPONENTS(0.0,0.0,0.0,0.0,0.0,0.0,0.0);
#78=SURFACE_STYLE_USAGE(.BOTH.,#122);
#79=FACE_OUTER_BOUND('',#123,.T.);
#80=CYLINDRICAL_SURFACE('',#124,8.38154515084315);
#81=SURFACE_STYLE_USAGE(.BOTH.,#125);
#82=FACE_OUTER_BOUND('',#126,.T.);
#83=CYLINDRICAL_SURFACE('',#127,8.381545150843);
#84=SURFACE_STYLE_USAGE(.BOTH.,#128);
#85=FACE_OUTER_BOUND('',#129,.T.);
#86=CYLINDRICAL_SURFACE('',#130,8.381545150843);
#87=SURFACE_STYLE_USAGE(.BOTH.,#131);
#88=FACE_OUTER_BOUND('',#132,.T.);
#89=PLANE('',#133);
#90=SURFACE_STYLE_USAGE(.BOTH.,#134);
#91=FACE_OUTER_BOUND('',#135,.T.);
#92=PLANE('',#136);
#93=SURFACE_STYLE_USAGE(.BOTH.,#137);
#94=FACE_OUTER_BOUND('',#138,.T.);
#95=PLANE('',#139);
#96=SURFACE_STYLE_USAGE(.BOTH.,#140);
#97=FACE_OUTER_BOUND('',#141,.T.);
#98=CYLINDRICAL_SURFACE('',#142,8.38154515084315);
#99=SURFACE_STYLE_USAGE(.BOTH.,#143);
#100=FACE_OUTER_BOUND('',#144,.T.);
#101=PLANE('',#145);
#102=SURFACE_STYLE_USAGE(.BOTH.,#146);
#103=FACE_OUTER_BOUND('',#147,.T.);
#104=PLANE('',#148);
#105=SURFACE_STYLE_USAGE(.BOTH.,#149);
#106=FACE_OUTER_BOUND('',#150,.T.);
#107=PLANE('',#151);
#108=SURFACE_STYLE_USAGE(.BOTH.,#152);
#109=FACE_OUTER_BOUND('',#153,.T.);
#110=PLANE('',#154);
#111=SURFACE_STYLE_USAGE(.BOTH.,#155);
#112=FACE_OUTER_BOUND('',#156,.T.);
#113=PLANE('',#157);
#114=SURFACE_STYLE_USAGE(.BOTH.,#158);
#115=CLOSED_SHELL('',(#37,#39,#41,#43,#45,#47,#49,#51,#53,#55,#57,#59));
#116=PRODUCT_CONTEXT('',#23,'mechanical');
#117=PRODUCT_DEFINITION_FORMATION_WITH_SPECIFIED_SOURCE(' ','NONE',#62,.NOT_KNOWN.);
#118=CARTESIAN_POINT('',(0.0,0.0,0.0));
#119=DIRECTION('',(0.0,0.0,1.0));
#120=DIRECTION('',(1.0,0.0,0.0));
#121= (NAMED_UNIT(#70)LENGTH_UNIT()SI_UNIT(.MILLI.,.METRE.));
#122=SURFACE_SIDE_STYLE('',(#160));
#123=EDGE_LOOP('',(#161,#162,#163,#164));
#124=AXIS2_PLACEMENT_3D('',#165,#166,#167);
#125=SURFACE_SIDE_STYLE('',(#168));
#126=EDGE_LOOP('',(#169,#170,#171,#172));
#127=AXIS2_PLACEMENT_3D('',#173,#174,#175);
#128=SURFACE_SIDE_STYLE('',(#176));
#129=EDGE_LOOP('',(#177,#178,#179,#180));
#130=AXIS2_PLACEMENT_3D('',#181,#182,#183);
#131=SURFACE_SIDE_STYLE('',(#184));
#132=EDGE_LOOP('',(#185,#186,#187,#188));
#133=AXIS2_PLACEMENT_3D('',#189,#190,#191);
#134=SURFACE_SIDE_STYLE('',(#192));
#135=EDGE_LOOP('',(#193,#194,#195,#196));
#136=AXIS2_PLACEMENT_3D('',#197,#198,#199);
#137=SURFACE_SIDE_STYLE('',(#200));
#138=EDGE_LOOP('',(#201,#202,#203,#204));
#139=AXIS2_PLACEMENT_3D('',#205,#206,#207);
#140=SURFACE_SIDE_STYLE('',(#208));
#141=EDGE_LOOP('',(#209,#210,#211,#212));
#142=AXIS2_PLACEMENT_3D('',#213,#214,#215);
#143=SURFACE_SIDE_STYLE('',(#216));
#144=EDGE_LOOP('',(#217,#218,#219,#220));
#145=AXIS2_PLACEMENT_3D('',#221,#222,#223);
#146=SURFACE_SIDE_STYLE('',(#224));
#147=EDGE_LOOP('',(#225,#226,#227,#228));
#148=AXIS2_PLACEMENT_3D('',#229,#230,#231);
#149=SURFACE_SIDE_STYLE('',(#232));
#150=EDGE_LOOP('',(#233,#234,#235,#236));
#151=AXIS2_PLACEMENT_3D('',#237,#238,#239);
#152=SURFACE_SIDE_STYLE('',(#240));
#153=EDGE_LOOP('',(#241,#242,#243,#244,#245,#246,#247,#248,#249,#250));
#154=AXIS2_PLACEMENT_3D('',#251,#252,#253);
#155=SURFACE_SIDE_STYLE('',(#254));
#156=EDGE_LOOP('',(#255,#256,#257,#258,#259,#260,#261,#262,#263,#264));
#157=AXIS2_PLACEMENT_3D('',#265,#266,#267);
#158=SURFACE_SIDE_STYLE('',(#268));
#160=SURFACE_STYLE_FILL_AREA(#269);
#161=ORIENTED_EDGE('',*,*,#270,.F.);
#162=ORIENTED_EDGE('',*,*,#271,.F.);
#163=ORIENTED_EDGE('',*,*,#272,.T.);
#164=ORIENTED_EDGE('',*,*,#273,.T.);
#165=CARTESIAN_POINT('',(22.4999999999998,0.0,2.88340384457797E-05));
#166=DIRECTION('',(-0.0,1.0,0.0));
#167=DIRECTION('',(1.61434359392347E-14,0.0,1.0));
#168=SURFACE_STYLE_FILL_AREA(#274);
#169=ORIENTED_EDGE('',*,*,#275,.F.);
#170=ORIENTED_EDGE('',*,*,#276,.F.);
#171=ORIENTED_EDGE('',*,*,#277,.T.);
#172=ORIENTED_EDGE('',*,*,#278,.T.);
#173=CARTESIAN_POINT('',(22.5,0.0,2.88340384457797E-05));
#174=DIRECTION('',(0.0,1.0,0.0));
#175=DIRECTION('',(5.76551319681848E-16,0.0,-1.0));
#176=SURFACE_STYLE_FILL_AREA(#279);
#177=ORIENTED_EDGE('',*,*,#275,.T.);
#178=ORIENTED_EDGE('',*,*,#280,.T.);
#179=ORIENTED_EDGE('',*,*,#281,.F.);
#180=ORIENTED_EDGE('',*,*,#282,.F.);
#181=CARTESIAN_POINT('',(22.5,0.0,2.88340384457797E-05));
#182=DIRECTION('',(0.0,1.0,0.0));
#183=DIRECTION('',(5.76551319681848E-16,0.0,-1.0));
#184=SURFACE_STYLE_FILL_AREA(#283);
#185=ORIENTED_EDGE('',*,*,#284,.T.);
#186=ORIENTED_EDGE('',*,*,#285,.F.);
#187=ORIENTED_EDGE('',*,*,#286,.F.);
#188=ORIENTED_EDGE('',*,*,#281,.T.);
#189=CARTESIAN_POINT('',(16.3379922870336,0.0,-5.68151673569542));
#190=DIRECTION('',(-5.86846898474245E-08,0.0,-0.999999999999998));
#191=DIRECTION('',(0.0,1.0,0.0));
#192=SURFACE_STYLE_FILL_AREA(#287);
#193=ORIENTED_EDGE('',*,*,#288,.T.);
#194=ORIENTED_EDGE('',*,*,#289,.F.);
#195=ORIENTED_EDGE('',*,*,#290,.F.);
#196=ORIENTED_EDGE('',*,*,#285,.T.);
#197=CARTESIAN_POINT('',(0.193454849159977,0.0,-5.68151578825825));
#198=DIRECTION('',(-1.0,0.0,0.0));
#199=DIRECTION('',(0.0,1.0,0.0));
#200=SURFACE_STYLE_FILL_AREA(#291);
#201=ORIENTED_EDGE('',*,*,#292,.T.);
#202=ORIENTED_EDGE('',*,*,#272,.F.);
#203=ORIENTED_EDGE('',*,*,#293,.F.);
#204=ORIENTED_EDGE('',*,*,#289,.T.);
#205=CARTESIAN_POINT('',(0.193454849159977,0.0,5.68157398488145));
#206=DIRECTION('',(0.0,0.0,1.0));
#207=DIRECTION('',(0.0,-1.0,0.0));
#208=SURFACE_STYLE_FILL_AREA(#294);
#209=ORIENTED_EDGE('',*,*,#270,.T.);
#210=ORIENTED_EDGE('',*,*,#295,.T.);
#211=ORIENTED_EDGE('',*,*,#296,.F.);
#212=ORIENTED_EDGE('',*,*,#297,.F.);
#213=CARTESIAN_POINT('',(22.4999999999998,0.0,2.88340384457797E-05));
#214=DIRECTION('',(-0.0,1.0,0.0));
#215=DIRECTION('',(1.61434359392347E-14,0.0,1.0));
#216=SURFACE_STYLE_FILL_AREA(#298);
#217=ORIENTED_EDGE('',*,*,#299,.T.);
#218=ORIENTED_EDGE('',*,*,#300,.F.);
#219=ORIENTED_EDGE('',*,*,#301,.F.);
#220=ORIENTED_EDGE('',*,*,#296,.T.);
#221=CARTESIAN_POINT('',(28.6620080991958,0.0,5.68157398488125));
#222=DIRECTION('',(-1.23231756585158E-14,0.0,1.0));
#223=DIRECTION('',(-1.0,0.0,-1.23231756585158E-14));
#224=SURFACE_STYLE_FILL_AREA(#302);
#225=ORIENTED_EDGE('',*,*,#303,.T.);
#226=ORIENTED_EDGE('',*,*,#304,.F.);
#227=ORIENTED_EDGE('',*,*,#305,.F.);
#228=ORIENTED_EDGE('',*,*,#300,.T.);
#229=CARTESIAN_POINT('',(44.80654515084,0.0,5.68157398488145));
#230=DIRECTION('',(1.0,0.0,0.0));
#231=DIRECTION('',(0.0,0.0,-1.0));
#232=SURFACE_STYLE_FILL_AREA(#306);
#233=ORIENTED_EDGE('',*,*,#307,.T.);
#234=ORIENTED_EDGE('',*,*,#277,.F.);
#235=ORIENTED_EDGE('',*,*,#308,.F.);
#236=ORIENTED_EDGE('',*,*,#304,.T.);
#237=CARTESIAN_POINT('',(44.80654515084,0.0,-5.68151578825824));
#238=DIRECTION('',(5.86846898474246E-08,0.0,-0.999999999999998));
#239=DIRECTION('',(0.0,-1.0,0.0));
#240=SURFACE_STYLE_FILL_AREA(#309);
#241=ORIENTED_EDGE('',*,*,#278,.F.);
#242=ORIENTED_EDGE('',*,*,#307,.F.);
#243=ORIENTED_EDGE('',*,*,#303,.F.);
#244=ORIENTED_EDGE('',*,*,#299,.F.);
#245=ORIENTED_EDGE('',*,*,#295,.F.);
#246=ORIENTED_EDGE('',*,*,#273,.F.);
#247=ORIENTED_EDGE('',*,*,#292,.F.);
#248=ORIENTED_EDGE('',*,*,#288,.F.);
#249=ORIENTED_EDGE('',*,*,#284,.F.);
#250=ORIENTED_EDGE('',*,*,#280,.F.);
#251=CARTESIAN_POINT('',(22.5,-1.5,2.89147904126708E-05));
#252=DIRECTION('',(-0.0,1.0,0.0));
#253=DIRECTION('',(1.0,0.0,0.0));
#254=SURFACE_STYLE_FILL_AREA(#310);
#255=ORIENTED_EDGE('',*,*,#308,.T.);
#256=ORIENTED_EDGE('',*,*,#276,.T.);
#257=ORIENTED_EDGE('',*,*,#282,.T.);
#258=ORIENTED_EDGE('',*,*,#286,.T.);
#259=ORIENTED_EDGE('',*,*,#290,.T.);
#260=ORIENTED_EDGE('',*,*,#293,.T.);
#261=ORIENTED_EDGE('',*,*,#271,.T.);
#262=ORIENTED_EDGE('',*,*,#297,.T.);
#263=ORIENTED_EDGE('',*,*,#301,.T.);
#264=ORIENTED_EDGE('',*,*,#305,.T.);
#265=CARTESIAN_POINT('',(22.5,0.0,2.89147904055653E-05));
#266=DIRECTION('',(-0.0,1.0,0.0));
#267=DIRECTION('',(1.0,0.0,0.0));
#268=SURFACE_STYLE_FILL_AREA(#311);
#269=FILL_AREA_STYLE('',(#312));
#270=EDGE_CURVE('',#313,#314,#315,.T.);
#271=EDGE_CURVE('',#316,#313,#317,.T.);
#272=EDGE_CURVE('',#316,#318,#319,.T.);
#273=EDGE_CURVE('',#318,#314,#320,.T.);
#274=FILL_AREA_STYLE('',(#321));
#275=EDGE_CURVE('',#322,#323,#324,.T.);
#276=EDGE_CURVE('',#325,#322,#326,.T.);
#277=EDGE_CURVE('',#325,#327,#328,.T.);
#278=EDGE_CURVE('',#327,#323,#329,.T.);
#279=FILL_AREA_STYLE('',(#330));
#280=EDGE_CURVE('',#323,#331,#332,.T.);
#281=EDGE_CURVE('',#333,#331,#334,.T.);
#282=EDGE_CURVE('',#322,#333,#335,.T.);
#283=FILL_AREA_STYLE('',(#336));
#284=EDGE_CURVE('',#331,#337,#338,.T.);
#285=EDGE_CURVE('',#339,#337,#340,.T.);
#286=EDGE_CURVE('',#333,#339,#341,.T.);
#287=FILL_AREA_STYLE('',(#342));
#288=EDGE_CURVE('',#337,#343,#344,.T.);
#289=EDGE_CURVE('',#345,#343,#346,.T.);
#290=EDGE_CURVE('',#339,#345,#347,.T.);
#291=FILL_AREA_STYLE('',(#348));
#292=EDGE_CURVE('',#343,#318,#349,.T.);
#293=EDGE_CURVE('',#345,#316,#350,.T.);
#294=FILL_AREA_STYLE('',(#351));
#295=EDGE_CURVE('',#314,#352,#353,.T.);
#296=EDGE_CURVE('',#354,#352,#355,.T.);
#297=EDGE_CURVE('',#313,#354,#356,.T.);
#298=FILL_AREA_STYLE('',(#357));
#299=EDGE_CURVE('',#352,#358,#359,.T.);
#300=EDGE_CURVE('',#360,#358,#361,.T.);
#301=EDGE_CURVE('',#354,#360,#362,.T.);
#302=FILL_AREA_STYLE('',(#363));
#303=EDGE_CURVE('',#358,#364,#365,.T.);
#304=EDGE_CURVE('',#366,#364,#367,.T.);
#305=EDGE_CURVE('',#360,#366,#368,.T.);
#306=FILL_AREA_STYLE('',(#369));
#307=EDGE_CURVE('',#364,#327,#370,.T.);
#308=EDGE_CURVE('',#366,#325,#371,.T.);
#309=FILL_AREA_STYLE('',(#372));
#310=FILL_AREA_STYLE('',(#373));
#311=FILL_AREA_STYLE('',(#374));
#312=FILL_AREA_STYLE_COLOUR('',#375);
#313=VERTEX_POINT('',#376);
#314=VERTEX_POINT('',#377);
#315=LINE('',#378,#379);
#316=VERTEX_POINT('',#380);
#317=CIRCLE('',#381,8.38154515084315);
#318=VERTEX_POINT('',#382);
#319=LINE('',#383,#384);
#320=CIRCLE('',#385,8.38154515084315);
#321=FILL_AREA_STYLE_COLOUR('',#386);
#322=VERTEX_POINT('',#387);
#323=VERTEX_POINT('',#388);
#324=LINE('',#389,#390);
#325=VERTEX_POINT('',#391);
#326=CIRCLE('',#392,8.381545150843);
#327=VERTEX_POINT('',#393);
#328=LINE('',#394,#395);
#329=CIRCLE('',#396,8.381545150843);
#330=FILL_AREA_STYLE_COLOUR('',#397);
#331=VERTEX_POINT('',#398);
#332=CIRCLE('',#399,8.381545150843);
#333=VERTEX_POINT('',#400);
#334=LINE('',#401,#402);
#335=CIRCLE('',#403,8.381545150843);
#336=FILL_AREA_STYLE_COLOUR('',#404);
#337=VERTEX_POINT('',#405);
#338=LINE('',#406,#407);
#339=VERTEX_POINT('',#408);
#340=LINE('',#409,#410);
#341=LINE('',#411,#412);
#342=FILL_AREA_STYLE_COLOUR('',#413);
#343=VERTEX_POINT('',#414);
#344=LINE('',#415,#416);
#345=VERTEX_POINT('',#417);
#346=LINE('',#418,#419);
#347=LINE('',#420,#421);
#348=FILL_AREA_STYLE_COLOUR('',#422);
#349=LINE('',#423,#424);
#350=LINE('',#425,#426);
#351=FILL_AREA_STYLE_COLOUR('',#427);
#352=VERTEX_POINT('',#428);
#353=CIRCLE('',#429,8.38154515084315);
#354=VERTEX_POINT('',#430);
#355=LINE('',#431,#432);
#356=CIRCLE('',#433,8.38154515084315);
#357=FILL_AREA_STYLE_COLOUR('',#434);
#358=VERTEX_POINT('',#435);
#359=LINE('',#436,#437);
#360=VERTEX_POINT('',#438);
#361=LINE('',#439,#440);
#362=LINE('',#441,#442);
#363=FILL_AREA_STYLE_COLOUR('',#443);
#364=VERTEX_POINT('',#444);
#365=LINE('',#445,#446);
#366=VERTEX_POINT('',#447);
#367=LINE('',#448,#449);
#368=LINE('',#450,#451);
#369=FILL_AREA_STYLE_COLOUR('',#452);
#370=LINE('',#453,#454);
#371=LINE('',#455,#456);
#372=FILL_AREA_STYLE_COLOUR('',#457);
#373=FILL_AREA_STYLE_COLOUR('',#458);
#374=FILL_AREA_STYLE_COLOUR('',#459);
#375=COLOUR_RGB('',0.0117647061124444,0.0196078438311815,0.0392156876623631);
#376=CARTESIAN_POINT('',(22.4999999999999,0.0,8.3815739848816));
#377=CARTESIAN_POINT('',(22.4999999999999,-1.5,8.3815739848816));
#378=CARTESIAN_POINT('',(22.4999999999999,-0.75,8.3815739848816));
#379=VECTOR('',#460,1.0);
#380=CARTESIAN_POINT('',(16.337991900804,0.0,5.68157398488145));
#381=AXIS2_PLACEMENT_3D('',#461,#462,#463);
#382=CARTESIAN_POINT('',(16.337991900804,-1.5,5.68157398488145));
#383=CARTESIAN_POINT('',(16.337991900804,0.0,5.68157398488145));
#384=VECTOR('',#464,1.5);
#385=AXIS2_PLACEMENT_3D('',#465,#466,#467);
#386=COLOUR_RGB('',0.0117647061124444,0.0196078438311815,0.0392156876623631);
#387=CARTESIAN_POINT('',(22.5,0.0,-8.38151631680455));
#388=CARTESIAN_POINT('',(22.5,-1.5,-8.38151631680455));
#389=CARTESIAN_POINT('',(22.5,-0.75,-8.38151631680455));
#390=VECTOR('',#468,1.0);
#391=CARTESIAN_POINT('',(28.6620077129664,0.0,-5.68151673569541));
#392=AXIS2_PLACEMENT_3D('',#469,#470,#471);
#393=CARTESIAN_POINT('',(28.6620077129664,-1.5,-5.68151673569541));
#394=CARTESIAN_POINT('',(28.6620077129664,0.0,-5.68151673569541));
#395=VECTOR('',#472,1.5);
#396=AXIS2_PLACEMENT_3D('',#473,#474,#475);
#397=COLOUR_RGB('',0.0117647061124444,0.0196078438311815,0.0392156876623631);
#398=CARTESIAN_POINT('',(16.3379922870336,-1.5,-5.68151673569542));
#399=AXIS2_PLACEMENT_3D('',#476,#477,#478);
#400=CARTESIAN_POINT('',(16.3379922870336,0.0,-5.68151673569542));
#401=CARTESIAN_POINT('',(16.3379922870336,0.0,-5.68151673569542));
#402=VECTOR('',#479,1.5);
#403=AXIS2_PLACEMENT_3D('',#480,#481,#482);
#404=COLOUR_RGB('',0.0117647061124444,0.0196078438311815,0.0392156876623631);
#405=CARTESIAN_POINT('',(0.193454849159977,-1.5,-5.68151578825825));
#406=CARTESIAN_POINT('',(16.3379922870336,-1.5,-5.68151673569542));
#407=VECTOR('',#483,16.1445374378736);
#408=CARTESIAN_POINT('',(0.193454849159977,0.0,-5.68151578825825));
#409=CARTESIAN_POINT('',(0.193454849159977,0.0,-5.68151578825825));
#410=VECTOR('',#484,1.5);
#411=CARTESIAN_POINT('',(16.3379922870336,0.0,-5.68151673569542));
#412=VECTOR('',#485,16.1445374378736);
#413=COLOUR_RGB('',0.0117647061124444,0.0196078438311815,0.0392156876623631);
#414=CARTESIAN_POINT('',(0.193454849159977,-1.5,5.68157398488145));
#415=CARTESIAN_POINT('',(0.193454849159977,-1.5,-5.68151578825825));
#416=VECTOR('',#486,11.3630897731397);
#417=CARTESIAN_POINT('',(0.193454849159977,0.0,5.68157398488145));
#418=CARTESIAN_POINT('',(0.193454849159977,0.0,5.68157398488145));
#419=VECTOR('',#487,1.5);
#420=CARTESIAN_POINT('',(0.193454849159977,0.0,-5.68151578825825));
#421=VECTOR('',#488,11.3630897731397);
#422=COLOUR_RGB('',0.0117647061124444,0.0196078438311815,0.0392156876623631);
#423=CARTESIAN_POINT('',(0.193454849159977,-1.5,5.68157398488145));
#424=VECTOR('',#489,16.144537051644);
#425=CARTESIAN_POINT('',(0.193454849159977,0.0,5.68157398488145));
#426=VECTOR('',#490,16.144537051644);
#427=COLOUR_RGB('',0.0117647061124444,0.0196078438311815,0.0392156876623631);
#428=CARTESIAN_POINT('',(28.6620080991958,-1.5,5.68157398488125));
#429=AXIS2_PLACEMENT_3D('',#491,#492,#493);
#430=CARTESIAN_POINT('',(28.6620080991958,0.0,5.68157398488125));
#431=CARTESIAN_POINT('',(28.6620080991958,0.0,5.68157398488125));
#432=VECTOR('',#494,1.5);
#433=AXIS2_PLACEMENT_3D('',#495,#496,#497);
#434=COLOUR_RGB('',0.0117647061124444,0.0196078438311815,0.0392156876623631);
#435=CARTESIAN_POINT('',(44.80654515084,-1.5,5.68157398488145));
#436=CARTESIAN_POINT('',(28.6620080991958,-1.5,5.68157398488125));
#437=VECTOR('',#498,16.1445370516442);
#438=CARTESIAN_POINT('',(44.80654515084,0.0,5.68157398488145));
#439=CARTESIAN_POINT('',(44.80654515084,0.0,5.68157398488145));
#440=VECTOR('',#499,1.5);
#441=CARTESIAN_POINT('',(28.6620080991958,0.0,5.68157398488125));
#442=VECTOR('',#500,16.1445370516442);
#443=COLOUR_RGB('',0.0117647061124444,0.0196078438311815,0.0392156876623631);
#444=CARTESIAN_POINT('',(44.80654515084,-1.5,-5.68151578825824));
#445=CARTESIAN_POINT('',(44.80654515084,-1.5,5.68157398488145));
#446=VECTOR('',#501,11.3630897731397);
#447=CARTESIAN_POINT('',(44.80654515084,0.0,-5.68151578825824));
#448=CARTESIAN_POINT('',(44.80654515084,0.0,-5.68151578825824));
#449=VECTOR('',#502,1.5);
#450=CARTESIAN_POINT('',(44.80654515084,0.0,5.68157398488145));
#451=VECTOR('',#503,11.3630897731397);
#452=COLOUR_RGB('',0.0117647061124444,0.0196078438311815,0.0392156876623631);
#453=CARTESIAN_POINT('',(44.80654515084,-1.5,-5.68151578825824));
#454=VECTOR('',#504,16.1445374378736);
#455=CARTESIAN_POINT('',(44.80654515084,0.0,-5.68151578825824));
#456=VECTOR('',#505,16.1445374378736);
#457=COLOUR_RGB('',0.0117647061124444,0.0196078438311815,0.0392156876623631);
#458=COLOUR_RGB('',0.0117647061124444,0.0196078438311815,0.0392156876623631);
#459=COLOUR_RGB('',0.0117647061124444,0.0196078438311815,0.0392156876623631);
#460=DIRECTION('',(-0.0,-1.0,-0.0));
#461=CARTESIAN_POINT('',(22.4999999999998,0.0,2.88340384457797E-05));
#462=DIRECTION('',(-0.0,1.0,0.0));
#463=DIRECTION('',(1.61434359392347E-14,0.0,1.0));
#464=DIRECTION('',(0.0,-1.0,0.0));
#465=CARTESIAN_POINT('',(22.4999999999998,-1.5,2.88340384457797E-05));
#466=DIRECTION('',(-0.0,1.0,0.0));
#467=DIRECTION('',(1.61434359392347E-14,0.0,1.0));
#468=DIRECTION('',(-0.0,-1.0,-0.0));
#469=CARTESIAN_POINT('',(22.5,0.0,2.88340384457797E-05));
#470=DIRECTION('',(0.0,1.0,0.0));
#471=DIRECTION('',(5.76551319681848E-16,0.0,-1.0));
#472=DIRECTION('',(0.0,-1.0,0.0));
#473=CARTESIAN_POINT('',(22.5,-1.5,2.88340384457797E-05));
#474=DIRECTION('',(0.0,1.0,0.0));
#475=DIRECTION('',(5.76551319681848E-16,0.0,-1.0));
#476=CARTESIAN_POINT('',(22.5,-1.5,2.88340384457797E-05));
#477=DIRECTION('',(0.0,1.0,0.0));
#478=DIRECTION('',(5.76551319681848E-16,0.0,-1.0));
#479=DIRECTION('',(0.0,-1.0,0.0));
#480=CARTESIAN_POINT('',(22.5,0.0,2.88340384457797E-05));
#481=DIRECTION('',(0.0,1.0,0.0));
#482=DIRECTION('',(5.76551319681848E-16,0.0,-1.0));
#483=DIRECTION('',(-0.999999999999998,0.0,5.86846898474245E-08));
#484=DIRECTION('',(0.0,-1.0,0.0));
#485=DIRECTION('',(-0.999999999999998,0.0,5.86846898474245E-08));
#486=DIRECTION('',(0.0,0.0,1.0));
#487=DIRECTION('',(0.0,-1.0,0.0));
#488=DIRECTION('',(0.0,0.0,1.0));
#489=DIRECTION('',(1.0,0.0,0.0));
#490=DIRECTION('',(1.0,0.0,0.0));
#491=CARTESIAN_POINT('',(22.4999999999998,-1.5,2.88340384457797E-05));
#492=DIRECTION('',(-0.0,1.0,0.0));
#493=DIRECTION('',(1.61434359392347E-14,0.0,1.0));
#494=DIRECTION('',(0.0,-1.0,0.0));
#495=CARTESIAN_POINT('',(22.4999999999998,0.0,2.88340384457797E-05));
#496=DIRECTION('',(-0.0,1.0,0.0));
#497=DIRECTION('',(1.61434359392347E-14,0.0,1.0));
#498=DIRECTION('',(1.0,0.0,1.23231756585158E-14));
#499=DIRECTION('',(0.0,-1.0,0.0));
#500=DIRECTION('',(1.0,0.0,1.23231756585158E-14));
#501=DIRECTION('',(0.0,0.0,-1.0));
#502=DIRECTION('',(0.0,-1.0,0.0));
#503=DIRECTION('',(0.0,0.0,-1.0));
#504=DIRECTION('',(-0.999999999999998,0.0,-5.86846898474246E-08));
#505=DIRECTION('',(-0.999999999999998,0.0,-5.86846898474246E-08));
ENDSEC;
END-ISO-10303-21;
