ISO-10303-21;
HEADER;
FILE_DESCRIPTION(('STEP AP214'),'1');
FILE_NAME('cctmp_2A81BCFE-0612-4C28-9FB9-7DF26AA96D8B_2024_12_20_09_55_31_0689_14580..stp','2024-12-20T08:55:31',('Bosch Rexroth AG'),('CADClick - www.CADClick.com'),'Spatial InterOp 3D',' ','unknown authorization - (Healing Option Enabled)');
FILE_SCHEMA(('AUTOMOTIVE_DESIGN'));
ENDSEC;
DATA;
#1=MECHANICAL_DESIGN_GEOMETRIC_PRESENTATION_REPRESENTATION(' ',(#10,#11,#12,#13,#14,#15,#16,#17,#18,#19,#20,#21,#22),#6);
#2=PRODUCT_DEFINITION_CONTEXT('',#23,'design');
#3=APPLICATION_PROTOCOL_DEFINITION('INTERNATIONAL STANDARD','automotive_design',1994,#23);
#4=PRODUCT_CATEGORY_RELATIONSHIP('NONE','NONE',#24,#25);
#5=SHAPE_DEFINITION_REPRESENTATION(#26,#27);
#6= (GEOMETRIC_REPRESENTATION_CONTEXT(3)GLOBAL_UNCERTAINTY_ASSIGNED_CONTEXT((#30))GLOBAL_UNIT_ASSIGNED_CONTEXT((#32,#33,#34))REPRESENTATION_CONTEXT('NONE','WORKSPACE'));
#10=STYLED_ITEM('',(#36),#37);
#11=STYLED_ITEM('',(#38),#39);
#12=STYLED_ITEM('',(#40),#41);
#13=STYLED_ITEM('',(#42),#43);
#14=STYLED_ITEM('',(#44),#45);
#15=STYLED_ITEM('',(#46),#47);
#16=STYLED_ITEM('',(#48),#49);
#17=STYLED_ITEM('',(#50),#51);
#18=STYLED_ITEM('',(#52),#53);
#19=STYLED_ITEM('',(#54),#55);
#20=STYLED_ITEM('',(#56),#57);
#21=STYLED_ITEM('',(#58),#59);
#22=STYLED_ITEM('',(#60),#61);
#23=APPLICATION_CONTEXT(' ');
#24=PRODUCT_CATEGORY('part','NONE');
#25=PRODUCT_RELATED_PRODUCT_CATEGORY('detail',' ',(#62));
#26=PRODUCT_DEFINITION_SHAPE('NONE','NONE',#63);
#27=ADVANCED_BREP_SHAPE_REPRESENTATION('2024_12_20_09_55_31_0673',(#61,#64),#6);
#30=UNCERTAINTY_MEASURE_WITH_UNIT(LENGTH_MEASURE(1.0E-06),#32,'','');
#32= (CONVERSION_BASED_UNIT('MILLIMETRE',#67)LENGTH_UNIT()NAMED_UNIT(#70));
#33= (NAMED_UNIT(#72)PLANE_ANGLE_UNIT()SI_UNIT($,.RADIAN.));
#34= (NAMED_UNIT(#72)SOLID_ANGLE_UNIT()SI_UNIT($,.STERADIAN.));
#36=PRESENTATION_STYLE_ASSIGNMENT((#78));
#37=ADVANCED_FACE('',(#79),#80,.F.);
#38=PRESENTATION_STYLE_ASSIGNMENT((#81));
#39=ADVANCED_FACE('',(#82),#83,.T.);
#40=PRESENTATION_STYLE_ASSIGNMENT((#84));
#41=ADVANCED_FACE('',(#85),#86,.T.);
#42=PRESENTATION_STYLE_ASSIGNMENT((#87));
#43=ADVANCED_FACE('',(#88),#89,.T.);
#44=PRESENTATION_STYLE_ASSIGNMENT((#90));
#45=ADVANCED_FACE('',(#91),#92,.T.);
#46=PRESENTATION_STYLE_ASSIGNMENT((#93));
#47=ADVANCED_FACE('',(#94),#95,.T.);
#48=PRESENTATION_STYLE_ASSIGNMENT((#96));
#49=ADVANCED_FACE('',(#97),#98,.T.);
#50=PRESENTATION_STYLE_ASSIGNMENT((#99));
#51=ADVANCED_FACE('',(#100,#101),#102,.T.);
#52=PRESENTATION_STYLE_ASSIGNMENT((#103));
#53=ADVANCED_FACE('',(#104),#105,.T.);
#54=PRESENTATION_STYLE_ASSIGNMENT((#106));
#55=ADVANCED_FACE('',(#107,#108),#109,.T.);
#56=PRESENTATION_STYLE_ASSIGNMENT((#110));
#57=ADVANCED_FACE('',(#111),#112,.F.);
#58=PRESENTATION_STYLE_ASSIGNMENT((#113));
#59=ADVANCED_FACE('',(#114),#115,.T.);
#60=PRESENTATION_STYLE_ASSIGNMENT((#116));
#61=MANIFOLD_SOLID_BREP('2024_12_20_09_55_31_0673',#117);
#62=PRODUCT('2024_12_20_09_55_31_0673','2024_12_20_09_55_31_0673','PART-2024_12_20_09_55_31_0673-DESC',(#118));
#63=PRODUCT_DEFINITION('','NONE',#119,#2);
#64=AXIS2_PLACEMENT_3D('',#120,#121,#122);
#67=LENGTH_MEASURE_WITH_UNIT(LENGTH_MEASURE(1.0),#123);
#70=DIMENSIONAL_EXPONENTS(1.0,0.0,0.0,0.0,0.0,0.0,0.0);
#72=DIMENSIONAL_EXPONENTS(0.0,0.0,0.0,0.0,0.0,0.0,0.0);
#78=SURFACE_STYLE_USAGE(.BOTH.,#124);
#79=FACE_OUTER_BOUND('',#125,.T.);
#80=CYLINDRICAL_SURFACE('',#126,2.59999999999973);
#81=SURFACE_STYLE_USAGE(.BOTH.,#127);
#82=FACE_OUTER_BOUND('',#128,.T.);
#83=CYLINDRICAL_SURFACE('',#129,3.74999999999973);
#84=SURFACE_STYLE_USAGE(.BOTH.,#130);
#85=FACE_OUTER_BOUND('',#131,.T.);
#86=TOROIDAL_SURFACE('',#132,5.7,0.299999999999993);
#87=SURFACE_STYLE_USAGE(.BOTH.,#133);
#88=FACE_OUTER_BOUND('',#134,.T.);
#89=TOROIDAL_SURFACE('',#135,3.82722799820185,2.5);
#90=SURFACE_STYLE_USAGE(.BOTH.,#136);
#91=FACE_OUTER_BOUND('',#137,.T.);
#92=SPHERICAL_SURFACE('',#138,50.0000000000053);
#93=SURFACE_STYLE_USAGE(.BOTH.,#139);
#94=FACE_OUTER_BOUND('',#140,.T.);
#95=TOROIDAL_SURFACE('',#141,3.82722799820185,2.5);
#96=SURFACE_STYLE_USAGE(.BOTH.,#142);
#97=FACE_OUTER_BOUND('',#143,.T.);
#98=TOROIDAL_SURFACE('',#144,5.7,0.299999999999993);
#99=SURFACE_STYLE_USAGE(.BOTH.,#145);
#100=FACE_OUTER_BOUND('',#146,.T.);
#101=FACE_BOUND('',#147,.T.);
#102=PLANE('',#148);
#103=SURFACE_STYLE_USAGE(.BOTH.,#149);
#104=FACE_OUTER_BOUND('',#150,.T.);
#105=CYLINDRICAL_SURFACE('',#151,3.74999999999973);
#106=SURFACE_STYLE_USAGE(.BOTH.,#152);
#107=FACE_OUTER_BOUND('',#153,.T.);
#108=FACE_BOUND('',#154,.T.);
#109=PLANE('',#155);
#110=SURFACE_STYLE_USAGE(.BOTH.,#156);
#111=FACE_OUTER_BOUND('',#157,.T.);
#112=CYLINDRICAL_SURFACE('',#158,2.59999999999973);
#113=SURFACE_STYLE_USAGE(.BOTH.,#159);
#114=FACE_OUTER_BOUND('',#160,.T.);
#115=PLANE('',#161);
#116=SURFACE_STYLE_USAGE(.BOTH.,#162);
#117=CLOSED_SHELL('',(#37,#39,#41,#43,#45,#47,#49,#51,#53,#55,#57,#59));
#118=PRODUCT_CONTEXT('',#23,'mechanical');
#119=PRODUCT_DEFINITION_FORMATION_WITH_SPECIFIED_SOURCE(' ','NONE',#62,.NOT_KNOWN.);
#120=CARTESIAN_POINT('',(0.0,0.0,0.0));
#121=DIRECTION('',(0.0,0.0,1.0));
#122=DIRECTION('',(1.0,0.0,0.0));
#123= (NAMED_UNIT(#70)LENGTH_UNIT()SI_UNIT(.MILLI.,.METRE.));
#124=SURFACE_SIDE_STYLE('',(#164));
#125=EDGE_LOOP('',(#165,#166,#167,#168));
#126=AXIS2_PLACEMENT_3D('',#169,#170,#171);
#127=SURFACE_SIDE_STYLE('',(#172));
#128=EDGE_LOOP('',(#173,#174,#175,#176));
#129=AXIS2_PLACEMENT_3D('',#177,#178,#179);
#130=SURFACE_SIDE_STYLE('',(#180));
#131=EDGE_LOOP('',(#181,#182,#183,#184));
#132=AXIS2_PLACEMENT_3D('',#185,#186,#187);
#133=SURFACE_SIDE_STYLE('',(#188));
#134=EDGE_LOOP('',(#189,#190,#191,#192));
#135=AXIS2_PLACEMENT_3D('',#193,#194,#195);
#136=SURFACE_SIDE_STYLE('',(#196));
#137=EDGE_LOOP('',(#197,#198,#199));
#138=AXIS2_PLACEMENT_3D('',#200,#201,#202);
#139=SURFACE_SIDE_STYLE('',(#203));
#140=EDGE_LOOP('',(#204,#205,#206,#207,#208,#209));
#141=AXIS2_PLACEMENT_3D('',#210,#211,#212);
#142=SURFACE_SIDE_STYLE('',(#213));
#143=EDGE_LOOP('',(#214,#215,#216,#217,#218,#219));
#144=AXIS2_PLACEMENT_3D('',#220,#221,#222);
#145=SURFACE_SIDE_STYLE('',(#223));
#146=EDGE_LOOP('',(#224,#225,#226));
#147=EDGE_LOOP('',(#227,#228));
#148=AXIS2_PLACEMENT_3D('',#229,#230,#231);
#149=SURFACE_SIDE_STYLE('',(#232));
#150=EDGE_LOOP('',(#233,#234,#235,#236));
#151=AXIS2_PLACEMENT_3D('',#237,#238,#239);
#152=SURFACE_SIDE_STYLE('',(#240));
#153=EDGE_LOOP('',(#241,#242));
#154=EDGE_LOOP('',(#243,#244));
#155=AXIS2_PLACEMENT_3D('',#245,#246,#247);
#156=SURFACE_SIDE_STYLE('',(#248));
#157=EDGE_LOOP('',(#249,#250,#251,#252));
#158=AXIS2_PLACEMENT_3D('',#253,#254,#255);
#159=SURFACE_SIDE_STYLE('',(#256));
#160=EDGE_LOOP('',(#257,#258));
#161=AXIS2_PLACEMENT_3D('',#259,#260,#261);
#162=SURFACE_SIDE_STYLE('',(#262));
#164=SURFACE_STYLE_FILL_AREA(#263);
#165=ORIENTED_EDGE('',*,*,#264,.F.);
#166=ORIENTED_EDGE('',*,*,#265,.T.);
#167=ORIENTED_EDGE('',*,*,#266,.F.);
#168=ORIENTED_EDGE('',*,*,#267,.F.);
#169=CARTESIAN_POINT('',(-2.700062E-13,-2.41878169724576,1.478466E-12));
#170=DIRECTION('',(1.058232E-13,1.0,-2.220446E-16));
#171=DIRECTION('',(-1.0,1.058232E-13,-2.349746E-29));
#172=SURFACE_STYLE_FILL_AREA(#268);
#173=ORIENTED_EDGE('',*,*,#269,.F.);
#174=ORIENTED_EDGE('',*,*,#270,.T.);
#175=ORIENTED_EDGE('',*,*,#271,.F.);
#176=ORIENTED_EDGE('',*,*,#272,.F.);
#177=CARTESIAN_POINT('',(-2.842171E-13,-2.49999999999976,1.478484E-12));
#178=DIRECTION('',(1.058232E-13,1.0,-2.220446E-16));
#179=DIRECTION('',(-1.0,1.058232E-13,-2.349746E-29));
#180=SURFACE_STYLE_FILL_AREA(#273);
#181=ORIENTED_EDGE('',*,*,#274,.F.);
#182=ORIENTED_EDGE('',*,*,#275,.T.);
#183=ORIENTED_EDGE('',*,*,#276,.F.);
#184=ORIENTED_EDGE('',*,*,#277,.F.);
#185=CARTESIAN_POINT('',(-1.421085E-14,5.101697E-12,1.477929E-12));
#186=DIRECTION('',(-1.065814E-13,-1.0,-0.0));
#187=DIRECTION('',(0.0,0.0,-1.0));
#188=SURFACE_STYLE_FILL_AREA(#278);
#189=ORIENTED_EDGE('',*,*,#279,.F.);
#190=ORIENTED_EDGE('',*,*,#280,.T.);
#191=ORIENTED_EDGE('',*,*,#281,.F.);
#192=ORIENTED_EDGE('',*,*,#275,.F.);
#193=CARTESIAN_POINT('',(-1.350031E-13,-1.15443710494299,1.478185E-12));
#194=DIRECTION('',(-1.065814E-13,-1.0,-0.0));
#195=DIRECTION('',(0.0,0.0,-1.0));
#196=SURFACE_STYLE_FILL_AREA(#282);
#197=ORIENTED_EDGE('',*,*,#283,.F.);
#198=ORIENTED_EDGE('',*,*,#284,.F.);
#199=ORIENTED_EDGE('',*,*,#280,.F.);
#200=CARTESIAN_POINT('',(1.49214E-13,-48.4999999999993,1.488698E-12));
#201=DIRECTION('',(0.0,0.0,1.0));
#202=DIRECTION('',(1.0,0.0,0.0));
#203=SURFACE_STYLE_FILL_AREA(#285);
#204=ORIENTED_EDGE('',*,*,#279,.T.);
#205=ORIENTED_EDGE('',*,*,#286,.F.);
#206=ORIENTED_EDGE('',*,*,#287,.F.);
#207=ORIENTED_EDGE('',*,*,#281,.T.);
#208=ORIENTED_EDGE('',*,*,#284,.T.);
#209=ORIENTED_EDGE('',*,*,#283,.T.);
#210=CARTESIAN_POINT('',(-1.350031E-13,-1.15443710494299,1.478185E-12));
#211=DIRECTION('',(-1.065814E-13,-1.0,-0.0));
#212=DIRECTION('',(0.0,0.0,-1.0));
#213=SURFACE_STYLE_FILL_AREA(#288);
#214=ORIENTED_EDGE('',*,*,#274,.T.);
#215=ORIENTED_EDGE('',*,*,#289,.F.);
#216=ORIENTED_EDGE('',*,*,#290,.F.);
#217=ORIENTED_EDGE('',*,*,#276,.T.);
#218=ORIENTED_EDGE('',*,*,#287,.T.);
#219=ORIENTED_EDGE('',*,*,#286,.T.);
#220=CARTESIAN_POINT('',(-1.421085E-14,5.101697E-12,1.477929E-12));
#221=DIRECTION('',(-1.065814E-13,-1.0,-0.0));
#222=DIRECTION('',(0.0,0.0,-1.0));
#223=SURFACE_STYLE_FILL_AREA(#291);
#224=ORIENTED_EDGE('',*,*,#289,.T.);
#225=ORIENTED_EDGE('',*,*,#277,.T.);
#226=ORIENTED_EDGE('',*,*,#290,.T.);
#227=ORIENTED_EDGE('',*,*,#270,.F.);
#228=ORIENTED_EDGE('',*,*,#292,.F.);
#229=CARTESIAN_POINT('',(-4.87500000000001,6.394885E-13,1.477929E-12));
#230=DIRECTION('',(-1.065814E-13,-1.0,2.220446E-16));
#231=DIRECTION('',(-1.0,1.065814E-13,0.0));
#232=SURFACE_STYLE_FILL_AREA(#293);
#233=ORIENTED_EDGE('',*,*,#269,.T.);
#234=ORIENTED_EDGE('',*,*,#294,.F.);
#235=ORIENTED_EDGE('',*,*,#271,.T.);
#236=ORIENTED_EDGE('',*,*,#292,.T.);
#237=CARTESIAN_POINT('',(-2.842171E-13,-2.49999999999976,1.478484E-12));
#238=DIRECTION('',(1.058232E-13,1.0,-2.220446E-16));
#239=DIRECTION('',(-1.0,1.058232E-13,-2.349746E-29));
#240=SURFACE_STYLE_FILL_AREA(#295);
#241=ORIENTED_EDGE('',*,*,#272,.T.);
#242=ORIENTED_EDGE('',*,*,#294,.T.);
#243=ORIENTED_EDGE('',*,*,#265,.F.);
#244=ORIENTED_EDGE('',*,*,#296,.F.);
#245=CARTESIAN_POINT('',(-3.17500000000001,-4.99999999999936,1.479039E-12));
#246=DIRECTION('',(-1.065814E-13,-1.0,2.220446E-16));
#247=DIRECTION('',(-1.0,1.065814E-13,0.0));
#248=SURFACE_STYLE_FILL_AREA(#297);
#249=ORIENTED_EDGE('',*,*,#264,.T.);
#250=ORIENTED_EDGE('',*,*,#298,.F.);
#251=ORIENTED_EDGE('',*,*,#266,.T.);
#252=ORIENTED_EDGE('',*,*,#296,.T.);
#253=CARTESIAN_POINT('',(-2.700062E-13,-2.41878169724576,1.478466E-12));
#254=DIRECTION('',(1.058232E-13,1.0,-2.220446E-16));
#255=DIRECTION('',(-1.0,1.058232E-13,-2.349746E-29));
#256=SURFACE_STYLE_FILL_AREA(#299);
#257=ORIENTED_EDGE('',*,*,#267,.T.);
#258=ORIENTED_EDGE('',*,*,#298,.T.);
#259=CARTESIAN_POINT('',(-1.3,0.162436605508361,1.477893E-12));
#260=DIRECTION('',(-1.065814E-13,-1.0,2.220446E-16));
#261=DIRECTION('',(-1.0,1.065814E-13,0.0));
#262=SURFACE_STYLE_FILL_AREA(#300);
#263=FILL_AREA_STYLE('',(#301));
#264=EDGE_CURVE('',#302,#303,#304,.T.);
#265=EDGE_CURVE('',#302,#305,#306,.T.);
#266=EDGE_CURVE('',#307,#305,#308,.T.);
#267=EDGE_CURVE('',#303,#307,#309,.T.);
#268=FILL_AREA_STYLE('',(#310));
#269=EDGE_CURVE('',#311,#312,#313,.T.);
#270=EDGE_CURVE('',#311,#314,#315,.T.);
#271=EDGE_CURVE('',#316,#314,#317,.T.);
#272=EDGE_CURVE('',#312,#316,#318,.T.);
#273=FILL_AREA_STYLE('',(#319));
#274=EDGE_CURVE('',#320,#321,#322,.T.);
#275=EDGE_CURVE('',#320,#323,#324,.T.);
#276=EDGE_CURVE('',#325,#323,#326,.T.);
#277=EDGE_CURVE('',#321,#325,#327,.T.);
#278=FILL_AREA_STYLE('',(#328));
#279=EDGE_CURVE('',#329,#320,#330,.T.);
#280=EDGE_CURVE('',#329,#331,#332,.T.);
#281=EDGE_CURVE('',#323,#331,#333,.T.);
#282=FILL_AREA_STYLE('',(#334));
#283=EDGE_CURVE('',#335,#329,#336,.T.);
#284=EDGE_CURVE('',#331,#335,#337,.T.);
#285=FILL_AREA_STYLE('',(#338));
#286=EDGE_CURVE('',#339,#320,#340,.T.);
#287=EDGE_CURVE('',#323,#339,#341,.T.);
#288=FILL_AREA_STYLE('',(#342));
#289=EDGE_CURVE('',#343,#321,#344,.T.);
#290=EDGE_CURVE('',#325,#343,#345,.T.);
#291=FILL_AREA_STYLE('',(#346));
#292=EDGE_CURVE('',#314,#311,#347,.T.);
#293=FILL_AREA_STYLE('',(#348));
#294=EDGE_CURVE('',#316,#312,#349,.T.);
#295=FILL_AREA_STYLE('',(#350));
#296=EDGE_CURVE('',#305,#302,#351,.T.);
#297=FILL_AREA_STYLE('',(#352));
#298=EDGE_CURVE('',#307,#303,#353,.T.);
#299=FILL_AREA_STYLE('',(#354));
#300=FILL_AREA_STYLE('',(#355));
#301=FILL_AREA_STYLE_COLOUR('',#356);
#302=VERTEX_POINT('',#357);
#303=VERTEX_POINT('',#358);
#304=LINE('',#359,#360);
#305=VERTEX_POINT('',#361);
#306=CIRCLE('',#362,2.59999999999946);
#307=VERTEX_POINT('',#363);
#308=LINE('',#364,#365);
#309=CIRCLE('',#366,2.6);
#310=FILL_AREA_STYLE_COLOUR('',#367);
#311=VERTEX_POINT('',#368);
#312=VERTEX_POINT('',#369);
#313=LINE('',#370,#371);
#314=VERTEX_POINT('',#372);
#315=CIRCLE('',#373,3.75);
#316=VERTEX_POINT('',#374);
#317=LINE('',#375,#376);
#318=CIRCLE('',#377,3.74999999999947);
#319=FILL_AREA_STYLE_COLOUR('',#378);
#320=VERTEX_POINT('',#379);
#321=VERTEX_POINT('',#380);
#322=CIRCLE('',#381,0.299999999999993);
#323=VERTEX_POINT('',#382);
#324=CIRCLE('',#383,5.95537800024544);
#325=VERTEX_POINT('',#384);
#326=CIRCLE('',#385,0.299999999999993);
#327=CIRCLE('',#386,5.99999999999999);
#328=FILL_AREA_STYLE_COLOUR('',#387);
#329=VERTEX_POINT('',#388);
#330=CIRCLE('',#389,2.5);
#331=VERTEX_POINT('',#390);
#332=CIRCLE('',#391,4.02866105073952);
#333=CIRCLE('',#392,2.5);
#334=FILL_AREA_STYLE_COLOUR('',#393);
#335=VERTEX_POINT('',#394);
#336=CIRCLE('',#395,4.02866105073952);
#337=CIRCLE('',#396,4.02866105073952);
#338=FILL_AREA_STYLE_COLOUR('',#397);
#339=VERTEX_POINT('',#398);
#340=CIRCLE('',#399,5.95537800024544);
#341=CIRCLE('',#400,5.95537800024544);
#342=FILL_AREA_STYLE_COLOUR('',#401);
#343=VERTEX_POINT('',#402);
#344=CIRCLE('',#403,5.99999999999999);
#345=CIRCLE('',#404,5.99999999999999);
#346=FILL_AREA_STYLE_COLOUR('',#405);
#347=CIRCLE('',#406,3.75);
#348=FILL_AREA_STYLE_COLOUR('',#407);
#349=CIRCLE('',#408,3.74999999999947);
#350=FILL_AREA_STYLE_COLOUR('',#409);
#351=CIRCLE('',#410,2.59999999999946);
#352=FILL_AREA_STYLE_COLOUR('',#411);
#353=CIRCLE('',#412,2.6);
#354=FILL_AREA_STYLE_COLOUR('',#413);
#355=FILL_AREA_STYLE_COLOUR('',#414);
#356=COLOUR_RGB('',0.752941191196442,0.752941191196442,0.752941191196442);
#357=CARTESIAN_POINT('',(-2.60000000000001,-4.99999999999936,1.479039E-12));
#358=CARTESIAN_POINT('',(-2.6,0.16243660550839,1.477893E-12));
#359=CARTESIAN_POINT('',(-2.6,-2.41878169724549,1.47814759183222E-12));
#360=VECTOR('',#415,1.0);
#361=CARTESIAN_POINT('',(2.59999999999891,-4.99999999999992,1.47935755375333E-12));
#362=AXIS2_PLACEMENT_3D('',#416,#417,#418);
#363=CARTESIAN_POINT('',(2.6,0.162436605507838,1.47821126258223E-12));
#364=CARTESIAN_POINT('',(2.59999999999946,-2.41878169724604,1.47878440816778E-12));
#365=VECTOR('',#419,1.0);
#366=AXIS2_PLACEMENT_3D('',#420,#421,#422);
#367=COLOUR_RGB('',0.752941191196442,0.752941191196442,0.752941191196442);
#368=CARTESIAN_POINT('',(-3.75000000000002,6.394885E-13,1.477929E-12));
#369=CARTESIAN_POINT('',(-3.75000000000002,-4.99999999999936,1.479039E-12));
#370=CARTESIAN_POINT('',(-3.75000000000002,-2.49999999999936,1.47802475745032E-12));
#371=VECTOR('',#423,1.0);
#372=CARTESIAN_POINT('',(3.74999999999999,-1.55252469841552E-13,1.47838813104968E-12));
#373=AXIS2_PLACEMENT_3D('',#424,#425,#426);
#374=CARTESIAN_POINT('',(3.74999999999892,-5.00000000000016,1.47949835404968E-12));
#375=CARTESIAN_POINT('',(3.74999999999945,-2.50000000000016,1.47894324254968E-12));
#376=VECTOR('',#427,1.0);
#377=AXIS2_PLACEMENT_3D('',#428,#429,#430);
#378=COLOUR_RGB('',0.752941191196442,0.752941191196442,0.752941191196442);
#379=CARTESIAN_POINT('',(4.08748887724436E-15,0.157423241588538,-5.95537800024396));
#380=CARTESIAN_POINT('',(-1.49456380800323E-14,-1.33226759999992E-15,-5.99999999999852));
#381=AXIS2_PLACEMENT_3D('',#431,#432,#433);
#382=CARTESIAN_POINT('',(5.54613579838726E-15,0.15742324158854,5.95537800024692));
#383=AXIS2_PLACEMENT_3D('',#434,#435,#436);
#384=CARTESIAN_POINT('',(-1.34760619210552E-14,1.33226759999992E-15,6.00000000000147));
#385=AXIS2_PLACEMENT_3D('',#437,#438,#439);
#386=AXIS2_PLACEMENT_3D('',#440,#441,#442);
#387=COLOUR_RGB('',0.752941191196442,0.752941191196442,0.752941191196442);
#388=CARTESIAN_POINT('',(1.30090709058309E-13,1.33743462637572,-4.02866105073804));
#389=AXIS2_PLACEMENT_3D('',#443,#444,#445);
#390=CARTESIAN_POINT('',(1.31077446430437E-13,1.33743462637573,4.02866105074099));
#391=AXIS2_PLACEMENT_3D('',#446,#447,#448);
#392=AXIS2_PLACEMENT_3D('',#449,#450,#451);
#393=COLOUR_RGB('',0.752941191196442,0.752941191196442,0.752941191196442);
#394=CARTESIAN_POINT('',(-4.02866105073939,1.33743462637615,1.477632E-12));
#395=AXIS2_PLACEMENT_3D('',#452,#453,#454);
#396=AXIS2_PLACEMENT_3D('',#455,#456,#457);
#397=COLOUR_RGB('',0.752941191196442,0.752941191196442,0.752941191196442);
#398=CARTESIAN_POINT('',(-5.95537800024544,0.157423241589171,1.477894E-12));
#399=AXIS2_PLACEMENT_3D('',#458,#459,#460);
#400=AXIS2_PLACEMENT_3D('',#461,#462,#463);
#401=COLOUR_RGB('',0.752941191196442,0.752941191196442,0.752941191196442);
#402=CARTESIAN_POINT('',(-6.00000000000001,6.394885E-13,1.477929E-12));
#403=AXIS2_PLACEMENT_3D('',#464,#465,#466);
#404=AXIS2_PLACEMENT_3D('',#467,#468,#469);
#405=COLOUR_RGB('',0.752941191196442,0.752941191196442,0.752941191196442);
#406=AXIS2_PLACEMENT_3D('',#470,#471,#472);
#407=COLOUR_RGB('',0.752941191196442,0.752941191196442,0.752941191196442);
#408=AXIS2_PLACEMENT_3D('',#473,#474,#475);
#409=COLOUR_RGB('',0.752941191196442,0.752941191196442,0.752941191196442);
#410=AXIS2_PLACEMENT_3D('',#476,#477,#478);
#411=COLOUR_RGB('',0.752941191196442,0.752941191196442,0.752941191196442);
#412=AXIS2_PLACEMENT_3D('',#479,#480,#481);
#413=COLOUR_RGB('',0.752941191196442,0.752941191196442,0.752941191196442);
#414=COLOUR_RGB('',0.752941012382507,0.752941012382507,0.752941012382507);
#415=DIRECTION('',(1.058232E-13,1.0,-2.220446E-16));
#416=CARTESIAN_POINT('',(-5.471179E-13,-4.99999999999965,1.479039E-12));
#417=DIRECTION('',(-1.058232E-13,-1.0,2.220446E-16));
#418=DIRECTION('',(-1.0,1.058232E-13,-2.349746E-29));
#419=DIRECTION('',(-1.058232E-13,-1.0,2.220446E-16));
#420=CARTESIAN_POINT('',(0.0,0.162436605508113,1.477893E-12));
#421=DIRECTION('',(-1.058232E-13,-1.0,2.220446E-16));
#422=DIRECTION('',(-1.0,1.058232E-13,-2.349746E-29));
#423=DIRECTION('',(-1.058232E-13,-1.0,2.220446E-16));
#424=CARTESIAN_POINT('',(-1.421085E-14,2.415845E-13,1.477929E-12));
#425=DIRECTION('',(-1.058232E-13,-1.0,2.220446E-16));
#426=DIRECTION('',(-1.0,1.058232E-13,-2.349746E-29));
#427=DIRECTION('',(1.058232E-13,1.0,-2.220446E-16));
#428=CARTESIAN_POINT('',(-5.471179E-13,-4.99999999999976,1.479039E-12));
#429=DIRECTION('',(-1.058232E-13,-1.0,2.220446E-16));
#430=DIRECTION('',(-1.0,1.058232E-13,-2.349746E-29));
#431=CARTESIAN_POINT('',(-1.4908898675514E-14,5.101697E-12,-5.69999999999853));
#432=DIRECTION('',(-1.0,1.065814E-13,1.22464679914735E-16));
#433=DIRECTION('',(-1.22464679914735E-16,1.30524570358644E-29,-1.0));
#434=CARTESIAN_POINT('',(0.0,0.157423241588539,1.477894E-12));
#435=DIRECTION('',(-1.058232E-13,-1.0,2.220446E-16));
#436=DIRECTION('',(-1.0,1.058232E-13,-2.349746E-29));
#437=CARTESIAN_POINT('',(-1.3512801324486E-14,5.101697E-12,5.70000000000148));
#438=DIRECTION('',(-1.0,1.065814E-13,1.22464679914735E-16));
#439=DIRECTION('',(1.22464679914735E-16,-1.30524570358644E-29,1.0));
#440=CARTESIAN_POINT('',(-1.421085E-14,0.0,1.477929E-12));
#441=DIRECTION('',(-1.058232E-13,-1.0,2.220446E-16));
#442=DIRECTION('',(-1.0,1.058232E-13,-2.349746E-29));
#443=CARTESIAN_POINT('',(-1.35471800251761E-13,-1.15443710494299,-3.82722799820037));
#444=DIRECTION('',(-1.0,1.065814E-13,1.22464679914734E-16));
#445=DIRECTION('',(-1.22464679914734E-16,1.30524570358642E-29,-1.0));
#446=CARTESIAN_POINT('',(1.278977E-13,1.33743462637573,1.477632E-12));
#447=DIRECTION('',(-1.058232E-13,-1.0,2.220446E-16));
#448=DIRECTION('',(-1.0,1.058232E-13,-2.349746E-29));
#449=CARTESIAN_POINT('',(-1.34534399748239E-13,-1.15443710494299,3.82722799820333));
#450=DIRECTION('',(-1.0,1.065814E-13,1.22464679914734E-16));
#451=DIRECTION('',(1.22464679914734E-16,-1.30524570358642E-29,1.0));
#452=CARTESIAN_POINT('',(1.278977E-13,1.33743462637573,1.477632E-12));
#453=DIRECTION('',(-1.058232E-13,-1.0,2.220446E-16));
#454=DIRECTION('',(-1.0,1.058232E-13,-2.349746E-29));
#455=CARTESIAN_POINT('',(1.278977E-13,1.33743462637573,1.477632E-12));
#456=DIRECTION('',(-1.058232E-13,-1.0,2.220446E-16));
#457=DIRECTION('',(-1.0,1.058232E-13,-2.349746E-29));
#458=CARTESIAN_POINT('',(0.0,0.157423241588539,1.477894E-12));
#459=DIRECTION('',(-1.058232E-13,-1.0,2.220446E-16));
#460=DIRECTION('',(-1.0,1.058232E-13,-2.349746E-29));
#461=CARTESIAN_POINT('',(0.0,0.157423241588539,1.477894E-12));
#462=DIRECTION('',(-1.058232E-13,-1.0,2.220446E-16));
#463=DIRECTION('',(-1.0,1.058232E-13,-2.349746E-29));
#464=CARTESIAN_POINT('',(-1.421085E-14,0.0,1.477929E-12));
#465=DIRECTION('',(-1.058232E-13,-1.0,2.220446E-16));
#466=DIRECTION('',(-1.0,1.058232E-13,-2.349746E-29));
#467=CARTESIAN_POINT('',(-1.421085E-14,0.0,1.477929E-12));
#468=DIRECTION('',(-1.058232E-13,-1.0,2.220446E-16));
#469=DIRECTION('',(-1.0,1.058232E-13,-2.349746E-29));
#470=CARTESIAN_POINT('',(-1.421085E-14,2.415845E-13,1.477929E-12));
#471=DIRECTION('',(-1.058232E-13,-1.0,2.220446E-16));
#472=DIRECTION('',(-1.0,1.058232E-13,-2.349746E-29));
#473=CARTESIAN_POINT('',(-5.471179E-13,-4.99999999999976,1.479039E-12));
#474=DIRECTION('',(-1.058232E-13,-1.0,2.220446E-16));
#475=DIRECTION('',(-1.0,1.058232E-13,-2.349746E-29));
#476=CARTESIAN_POINT('',(-5.471179E-13,-4.99999999999965,1.479039E-12));
#477=DIRECTION('',(-1.058232E-13,-1.0,2.220446E-16));
#478=DIRECTION('',(-1.0,1.058232E-13,-2.349746E-29));
#479=CARTESIAN_POINT('',(0.0,0.162436605508113,1.477893E-12));
#480=DIRECTION('',(-1.058232E-13,-1.0,2.220446E-16));
#481=DIRECTION('',(-1.0,1.058232E-13,-2.349746E-29));
ENDSEC;
END-ISO-10303-21;
