ISO-10303-21;
HEADER;
FILE_DESCRIPTION(('STEP AP214'),'1');
FILE_NAME('cctmp_397983BF-609B-4502-85A6-D9A681A3A3A3_2020_1_20_9_38_2_376..stp','2020-01-20T08:38:02',('Bosch Rexroth AG'),('CADClick - www.CADClick.com'),'Spatial InterOp 3D',' ','unknown authorization - (Healing Option Enabled)');
FILE_SCHEMA(('AUTOMOTIVE_DESIGN'));
ENDSEC;
DATA;
#1=MECHANICAL_DESIGN_GEOMETRIC_PRESENTATION_REPRESENTATION(' ',(#10,#11,#12,#13,#14,#15,#16,#17,#18),#6);
#2=PRODUCT_DEFINITION_CONTEXT('',#19,'design');
#3=APPLICATION_PROTOCOL_DEFINITION('INTERNATIONAL STANDARD','automotive_design',1994,#19);
#4=PRODUCT_CATEGORY_RELATIONSHIP('NONE','NONE',#20,#21);
#5=SHAPE_DEFINITION_REPRESENTATION(#22,#23);
#6= (GEOMETRIC_REPRESENTATION_CONTEXT(3)GLOBAL_UNCERTAINTY_ASSIGNED_CONTEXT((#26))GLOBAL_UNIT_ASSIGNED_CONTEXT((#28,#29,#30))REPRESENTATION_CONTEXT('NONE','WORKSPACE'));
#10=STYLED_ITEM('',(#32),#33);
#11=STYLED_ITEM('',(#34),#35);
#12=STYLED_ITEM('',(#36),#37);
#13=STYLED_ITEM('',(#38),#39);
#14=STYLED_ITEM('',(#40),#41);
#15=STYLED_ITEM('',(#42),#43);
#16=STYLED_ITEM('',(#44),#45);
#17=STYLED_ITEM('',(#46),#47);
#18=STYLED_ITEM('',(#48),#49);
#19=APPLICATION_CONTEXT(' ');
#20=PRODUCT_CATEGORY('part','NONE');
#21=PRODUCT_RELATED_PRODUCT_CATEGORY('detail',' ',(#50));
#22=PRODUCT_DEFINITION_SHAPE('NONE','NONE',#51);
#23=ADVANCED_BREP_SHAPE_REPRESENTATION('2020_01_20__09-38-02-376',(#49,#52),#6);
#26=UNCERTAINTY_MEASURE_WITH_UNIT(LENGTH_MEASURE(1.0E-006),#28,'','');
#28= (CONVERSION_BASED_UNIT('MILLIMETRE',#55)LENGTH_UNIT()NAMED_UNIT(#58));
#29= (NAMED_UNIT(#60)PLANE_ANGLE_UNIT()SI_UNIT($,.RADIAN.));
#30= (NAMED_UNIT(#60)SOLID_ANGLE_UNIT()SI_UNIT($,.STERADIAN.));
#32=PRESENTATION_STYLE_ASSIGNMENT((#66));
#33=ADVANCED_FACE('',(#67),#68,.F.);
#34=PRESENTATION_STYLE_ASSIGNMENT((#69));
#35=ADVANCED_FACE('',(#70),#71,.T.);
#36=PRESENTATION_STYLE_ASSIGNMENT((#72));
#37=ADVANCED_FACE('',(#73),#74,.T.);
#38=PRESENTATION_STYLE_ASSIGNMENT((#75));
#39=ADVANCED_FACE('',(#76),#77,.T.);
#40=PRESENTATION_STYLE_ASSIGNMENT((#78));
#41=ADVANCED_FACE('',(#79),#80,.F.);
#42=PRESENTATION_STYLE_ASSIGNMENT((#81));
#43=ADVANCED_FACE('',(#82),#83,.T.);
#44=PRESENTATION_STYLE_ASSIGNMENT((#84));
#45=ADVANCED_FACE('',(#85),#86,.F.);
#46=PRESENTATION_STYLE_ASSIGNMENT((#87));
#47=ADVANCED_FACE('',(#88),#89,.T.);
#48=PRESENTATION_STYLE_ASSIGNMENT((#90));
#49=MANIFOLD_SOLID_BREP('2020_01_20__09-38-02-376',#91);
#50=PRODUCT('2020_01_20__09-38-02-376','','PART--DESC',(#92));
#51=PRODUCT_DEFINITION('','NONE',#93,#2);
#52=AXIS2_PLACEMENT_3D('',#94,#95,#96);
#55=LENGTH_MEASURE_WITH_UNIT(LENGTH_MEASURE(1.0),#97);
#58=DIMENSIONAL_EXPONENTS(1.0,0.0,0.0,0.0,0.0,0.0,0.0);
#60=DIMENSIONAL_EXPONENTS(0.0,0.0,0.0,0.0,0.0,0.0,0.0);
#66=SURFACE_STYLE_USAGE(.BOTH.,#98);
#67=FACE_OUTER_BOUND('',#99,.T.);
#68=CYLINDRICAL_SURFACE('',#100,60.0000000830579);
#69=SURFACE_STYLE_USAGE(.BOTH.,#101);
#70=FACE_OUTER_BOUND('',#102,.T.);
#71=CYLINDRICAL_SURFACE('',#103,99.9999999916916);
#72=SURFACE_STYLE_USAGE(.BOTH.,#104);
#73=FACE_OUTER_BOUND('',#105,.T.);
#74=CYLINDRICAL_SURFACE('',#106,99.9999999916916);
#75=SURFACE_STYLE_USAGE(.BOTH.,#107);
#76=FACE_OUTER_BOUND('',#108,.T.);
#77=PLANE('',#109);
#78=SURFACE_STYLE_USAGE(.BOTH.,#110);
#79=FACE_OUTER_BOUND('',#111,.T.);
#80=CYLINDRICAL_SURFACE('',#112,60.0000000830579);
#81=SURFACE_STYLE_USAGE(.BOTH.,#113);
#82=FACE_OUTER_BOUND('',#114,.T.);
#83=PLANE('',#115);
#84=SURFACE_STYLE_USAGE(.BOTH.,#116);
#85=FACE_OUTER_BOUND('',#117,.T.);
#86=PLANE('',#118);
#87=SURFACE_STYLE_USAGE(.BOTH.,#119);
#88=FACE_OUTER_BOUND('',#120,.T.);
#89=PLANE('',#121);
#90=SURFACE_STYLE_USAGE(.BOTH.,#122);
#91=CLOSED_SHELL('',(#33,#35,#37,#39,#41,#43,#45,#47));
#92=PRODUCT_CONTEXT('',#19,'mechanical');
#93=PRODUCT_DEFINITION_FORMATION_WITH_SPECIFIED_SOURCE(' ','NONE',#50,.NOT_KNOWN.);
#94=CARTESIAN_POINT('',(0.0,0.0,0.0));
#95=DIRECTION('',(0.0,0.0,1.0));
#96=DIRECTION('',(1.0,0.0,0.0));
#97= (NAMED_UNIT(#58)LENGTH_UNIT()SI_UNIT(.MILLI.,.METRE.));
#98=SURFACE_SIDE_STYLE('',(#124));
#99=EDGE_LOOP('',(#125,#126,#127,#128));
#100=AXIS2_PLACEMENT_3D('',#129,#130,#131);
#101=SURFACE_SIDE_STYLE('',(#132));
#102=EDGE_LOOP('',(#133,#134,#135,#136));
#103=AXIS2_PLACEMENT_3D('',#137,#138,#139);
#104=SURFACE_SIDE_STYLE('',(#140));
#105=EDGE_LOOP('',(#141,#142,#143,#144));
#106=AXIS2_PLACEMENT_3D('',#145,#146,#147);
#107=SURFACE_SIDE_STYLE('',(#148));
#108=EDGE_LOOP('',(#149,#150,#151,#152));
#109=AXIS2_PLACEMENT_3D('',#153,#154,#155);
#110=SURFACE_SIDE_STYLE('',(#156));
#111=EDGE_LOOP('',(#157,#158,#159,#160));
#112=AXIS2_PLACEMENT_3D('',#161,#162,#163);
#113=SURFACE_SIDE_STYLE('',(#164));
#114=EDGE_LOOP('',(#165,#166,#167,#168));
#115=AXIS2_PLACEMENT_3D('',#169,#170,#171);
#116=SURFACE_SIDE_STYLE('',(#172));
#117=EDGE_LOOP('',(#173,#174,#175,#176,#177,#178));
#118=AXIS2_PLACEMENT_3D('',#179,#180,#181);
#119=SURFACE_SIDE_STYLE('',(#182));
#120=EDGE_LOOP('',(#183,#184,#185,#186,#187,#188));
#121=AXIS2_PLACEMENT_3D('',#189,#190,#191);
#122=SURFACE_SIDE_STYLE('',(#192));
#124=SURFACE_STYLE_FILL_AREA(#193);
#125=ORIENTED_EDGE('',*,*,#194,.F.);
#126=ORIENTED_EDGE('',*,*,#195,.T.);
#127=ORIENTED_EDGE('',*,*,#196,.F.);
#128=ORIENTED_EDGE('',*,*,#197,.F.);
#129=CARTESIAN_POINT('',(3.99999999999999,-77.2740661830579,-20.7055236444945));
#130=DIRECTION('',(1.0,-0.0,0.0));
#131=DIRECTION('',(0.0,0.965925826232189,0.258819045314798));
#132=SURFACE_STYLE_FILL_AREA(#198);
#133=ORIENTED_EDGE('',*,*,#199,.F.);
#134=ORIENTED_EDGE('',*,*,#200,.F.);
#135=ORIENTED_EDGE('',*,*,#201,.T.);
#136=ORIENTED_EDGE('',*,*,#202,.T.);
#137=CARTESIAN_POINT('',(3.99999999999999,-77.2740660916916,-20.7055236050785));
#138=DIRECTION('',(1.0,-0.0,0.0));
#139=DIRECTION('',(0.0,0.965925826296584,0.258819045074473));
#140=SURFACE_STYLE_FILL_AREA(#203);
#141=ORIENTED_EDGE('',*,*,#199,.T.);
#142=ORIENTED_EDGE('',*,*,#204,.T.);
#143=ORIENTED_EDGE('',*,*,#205,.F.);
#144=ORIENTED_EDGE('',*,*,#206,.F.);
#145=CARTESIAN_POINT('',(3.99999999999999,-77.2740660916916,-20.7055236050785));
#146=DIRECTION('',(1.0,-0.0,0.0));
#147=DIRECTION('',(0.0,0.965925826296584,0.258819045074473));
#148=SURFACE_STYLE_FILL_AREA(#207);
#149=ORIENTED_EDGE('',*,*,#208,.T.);
#150=ORIENTED_EDGE('',*,*,#209,.F.);
#151=ORIENTED_EDGE('',*,*,#210,.F.);
#152=ORIENTED_EDGE('',*,*,#205,.T.);
#153=CARTESIAN_POINT('',(3.99999999999999,9.32847428000002,29.29447639));
#154=DIRECTION('',(0.0,-0.499999999906658,0.86602540383833));
#155=DIRECTION('',(-1.0,0.0,0.0));
#156=SURFACE_STYLE_FILL_AREA(#211);
#157=ORIENTED_EDGE('',*,*,#194,.T.);
#158=ORIENTED_EDGE('',*,*,#212,.F.);
#159=ORIENTED_EDGE('',*,*,#209,.T.);
#160=ORIENTED_EDGE('',*,*,#213,.T.);
#161=CARTESIAN_POINT('',(3.99999999999999,-77.2740661830579,-20.7055236444945));
#162=DIRECTION('',(1.0,-0.0,0.0));
#163=DIRECTION('',(0.0,0.965925826232189,0.258819045314798));
#164=SURFACE_STYLE_FILL_AREA(#214);
#165=ORIENTED_EDGE('',*,*,#215,.T.);
#166=ORIENTED_EDGE('',*,*,#201,.F.);
#167=ORIENTED_EDGE('',*,*,#216,.F.);
#168=ORIENTED_EDGE('',*,*,#196,.T.);
#169=CARTESIAN_POINT('',(3.99999999999999,-17.2740661,-20.70552361));
#170=DIRECTION('',(0.0,5.32907051820074E-016,-1.0));
#171=DIRECTION('',(-1.0,0.0,0.0));
#172=SURFACE_STYLE_FILL_AREA(#217);
#173=ORIENTED_EDGE('',*,*,#202,.F.);
#174=ORIENTED_EDGE('',*,*,#215,.F.);
#175=ORIENTED_EDGE('',*,*,#195,.F.);
#176=ORIENTED_EDGE('',*,*,#213,.F.);
#177=ORIENTED_EDGE('',*,*,#208,.F.);
#178=ORIENTED_EDGE('',*,*,#204,.F.);
#179=CARTESIAN_POINT('',(-1.4210854715202E-014,0.610947823019387,0.163702974466235));
#180=DIRECTION('',(1.0,0.0,0.0));
#181=DIRECTION('',(0.0,1.0,-0.0));
#182=SURFACE_STYLE_FILL_AREA(#218);
#183=ORIENTED_EDGE('',*,*,#216,.T.);
#184=ORIENTED_EDGE('',*,*,#200,.T.);
#185=ORIENTED_EDGE('',*,*,#206,.T.);
#186=ORIENTED_EDGE('',*,*,#210,.T.);
#187=ORIENTED_EDGE('',*,*,#212,.T.);
#188=ORIENTED_EDGE('',*,*,#197,.T.);
#189=CARTESIAN_POINT('',(3.99999999999999,0.610947823019387,0.163702974466234));
#190=DIRECTION('',(1.0,0.0,0.0));
#191=DIRECTION('',(0.0,1.0,-0.0));
#192=SURFACE_STYLE_FILL_AREA(#219);
#193=FILL_AREA_STYLE('',(#220));
#194=EDGE_CURVE('',#221,#222,#223,.T.);
#195=EDGE_CURVE('',#221,#224,#225,.T.);
#196=EDGE_CURVE('',#226,#224,#227,.T.);
#197=EDGE_CURVE('',#222,#226,#228,.T.);
#198=FILL_AREA_STYLE('',(#229));
#199=EDGE_CURVE('',#230,#231,#232,.T.);
#200=EDGE_CURVE('',#233,#230,#234,.T.);
#201=EDGE_CURVE('',#233,#235,#236,.T.);
#202=EDGE_CURVE('',#235,#231,#237,.T.);
#203=FILL_AREA_STYLE('',(#238));
#204=EDGE_CURVE('',#231,#239,#240,.T.);
#205=EDGE_CURVE('',#241,#239,#242,.T.);
#206=EDGE_CURVE('',#230,#241,#243,.T.);
#207=FILL_AREA_STYLE('',(#244));
#208=EDGE_CURVE('',#239,#245,#246,.T.);
#209=EDGE_CURVE('',#247,#245,#248,.T.);
#210=EDGE_CURVE('',#241,#247,#249,.T.);
#211=FILL_AREA_STYLE('',(#250));
#212=EDGE_CURVE('',#247,#222,#251,.T.);
#213=EDGE_CURVE('',#245,#221,#252,.T.);
#214=FILL_AREA_STYLE('',(#253));
#215=EDGE_CURVE('',#224,#235,#254,.T.);
#216=EDGE_CURVE('',#226,#233,#255,.T.);
#217=FILL_AREA_STYLE('',(#256));
#218=FILL_AREA_STYLE('',(#257));
#219=FILL_AREA_STYLE('',(#258));
#220=FILL_AREA_STYLE_COLOUR('',#259);
#221=VERTEX_POINT('',#260);
#222=VERTEX_POINT('',#261);
#223=LINE('',#262,#263);
#224=VERTEX_POINT('',#264);
#225=CIRCLE('',#265,60.0000000830579);
#226=VERTEX_POINT('',#266);
#227=LINE('',#267,#268);
#228=CIRCLE('',#269,60.0000000830579);
#229=FILL_AREA_STYLE_COLOUR('',#270);
#230=VERTEX_POINT('',#271);
#231=VERTEX_POINT('',#272);
#232=LINE('',#273,#274);
#233=VERTEX_POINT('',#275);
#234=CIRCLE('',#276,99.9999999916916);
#235=VERTEX_POINT('',#277);
#236=LINE('',#278,#279);
#237=CIRCLE('',#280,99.9999999916916);
#238=FILL_AREA_STYLE_COLOUR('',#281);
#239=VERTEX_POINT('',#282);
#240=CIRCLE('',#283,99.9999999916916);
#241=VERTEX_POINT('',#284);
#242=LINE('',#285,#286);
#243=CIRCLE('',#287,99.9999999916916);
#244=FILL_AREA_STYLE_COLOUR('',#288);
#245=VERTEX_POINT('',#289);
#246=LINE('',#290,#291);
#247=VERTEX_POINT('',#292);
#248=LINE('',#293,#294);
#249=LINE('',#295,#296);
#250=FILL_AREA_STYLE_COLOUR('',#297);
#251=CIRCLE('',#298,60.0000000830579);
#252=CIRCLE('',#299,60.0000000830579);
#253=FILL_AREA_STYLE_COLOUR('',#300);
#254=LINE('',#301,#302);
#255=LINE('',#303,#304);
#256=FILL_AREA_STYLE_COLOUR('',#305);
#257=FILL_AREA_STYLE_COLOUR('',#306);
#258=FILL_AREA_STYLE_COLOUR('',#307);
#259=COLOUR_RGB('',0.0117647061124444,0.0196078438311815,0.0392156876623631);
#260=CARTESIAN_POINT('',(-1.40998324127395E-014,-19.3185165288988,-5.17638090410967));
#261=CARTESIAN_POINT('',(3.99999999999999,-19.3185165288988,-5.17638090410967));
#262=CARTESIAN_POINT('',(1.99999999999999,-19.3185165288988,-5.17638090410967));
#263=VECTOR('',#308,1.0);
#264=CARTESIAN_POINT('',(-1.4210854715202E-014,-17.2740661,-20.70552361));
#265=AXIS2_PLACEMENT_3D('',#309,#310,#311);
#266=CARTESIAN_POINT('',(3.99999999999999,-17.2740661,-20.70552361));
#267=CARTESIAN_POINT('',(3.99999999999999,-17.2740661,-20.70552361));
#268=VECTOR('',#312,4.0);
#269=AXIS2_PLACEMENT_3D('',#313,#314,#315);
#270=COLOUR_RGB('',0.0117647061124444,0.0196078438311815,0.0392156876623631);
#271=CARTESIAN_POINT('',(3.99999999999999,19.3185165299415,5.17638090021841));
#272=CARTESIAN_POINT('',(-1.40998324127395E-014,19.3185165299415,5.17638090021841));
#273=CARTESIAN_POINT('',(1.99999999999999,19.3185165299415,5.17638090021841));
#274=VECTOR('',#316,1.0);
#275=CARTESIAN_POINT('',(3.99999999999999,22.7259339,-20.70552361));
#276=AXIS2_PLACEMENT_3D('',#317,#318,#319);
#277=CARTESIAN_POINT('',(-1.4210854715202E-014,22.7259339,-20.70552361));
#278=CARTESIAN_POINT('',(3.99999999999999,22.7259339,-20.70552361));
#279=VECTOR('',#320,4.0);
#280=AXIS2_PLACEMENT_3D('',#321,#322,#323);
#281=COLOUR_RGB('',0.0117647061124444,0.0196078438311815,0.0392156876623631);
#282=CARTESIAN_POINT('',(-1.4210854715202E-014,9.32847428000002,29.29447639));
#283=AXIS2_PLACEMENT_3D('',#324,#325,#326);
#284=CARTESIAN_POINT('',(3.99999999999999,9.32847428000002,29.29447639));
#285=CARTESIAN_POINT('',(3.99999999999999,9.32847428000002,29.29447639));
#286=VECTOR('',#327,4.0);
#287=AXIS2_PLACEMENT_3D('',#328,#329,#330);
#288=COLOUR_RGB('',0.0117647061124444,0.0196078438311815,0.0392156876623631);
#289=CARTESIAN_POINT('',(-1.4210854715202E-014,-25.31254188,9.29447639000003));
#290=CARTESIAN_POINT('',(-1.4210854715202E-014,9.32847428000002,29.29447639));
#291=VECTOR('',#331,40.0000000074673);
#292=CARTESIAN_POINT('',(3.99999999999999,-25.31254188,9.29447639000003));
#293=CARTESIAN_POINT('',(3.99999999999999,-25.31254188,9.29447639000003));
#294=VECTOR('',#332,4.0);
#295=CARTESIAN_POINT('',(3.99999999999999,9.32847428000002,29.29447639));
#296=VECTOR('',#333,40.0000000074673);
#297=COLOUR_RGB('',0.0117647061124444,0.0196078438311815,0.0392156876623631);
#298=AXIS2_PLACEMENT_3D('',#334,#335,#336);
#299=AXIS2_PLACEMENT_3D('',#337,#338,#339);
#300=COLOUR_RGB('',0.0117647061124444,0.0196078438311815,0.0392156876623631);
#301=CARTESIAN_POINT('',(-1.4210854715202E-014,-17.2740661,-20.70552361));
#302=VECTOR('',#340,40.0000000000001);
#303=CARTESIAN_POINT('',(3.99999999999999,-17.2740661,-20.70552361));
#304=VECTOR('',#341,40.0000000000001);
#305=COLOUR_RGB('',0.0117647061124444,0.0196078438311815,0.0392156876623631);
#306=COLOUR_RGB('',0.0117647061124444,0.0196078438311815,0.0392156876623631);
#307=COLOUR_RGB('',0.0117647061124444,0.0196078438311815,0.0392156876623631);
#308=DIRECTION('',(1.0,-0.0,-0.0));
#309=CARTESIAN_POINT('',(-1.4210854715202E-014,-77.2740661830579,-20.7055236444945));
#310=DIRECTION('',(-1.0,0.0,0.0));
#311=DIRECTION('',(0.0,0.965925826232189,0.258819045314798));
#312=DIRECTION('',(-1.0,0.0,0.0));
#313=CARTESIAN_POINT('',(3.99999999999999,-77.2740661830579,-20.7055236444945));
#314=DIRECTION('',(-1.0,0.0,0.0));
#315=DIRECTION('',(0.0,0.965925826232189,0.258819045314798));
#316=DIRECTION('',(-1.0,0.0,-0.0));
#317=CARTESIAN_POINT('',(3.99999999999999,-77.2740660916916,-20.7055236050785));
#318=DIRECTION('',(1.0,0.0,-0.0));
#319=DIRECTION('',(0.0,0.965925826296584,0.258819045074473));
#320=DIRECTION('',(-1.0,0.0,0.0));
#321=CARTESIAN_POINT('',(-1.4210854715202E-014,-77.2740660916916,-20.7055236050785));
#322=DIRECTION('',(1.0,0.0,-0.0));
#323=DIRECTION('',(0.0,0.965925826296584,0.258819045074473));
#324=CARTESIAN_POINT('',(-1.4210854715202E-014,-77.2740660916916,-20.7055236050785));
#325=DIRECTION('',(1.0,0.0,-0.0));
#326=DIRECTION('',(0.0,0.965925826296584,0.258819045074473));
#327=DIRECTION('',(-1.0,0.0,0.0));
#328=CARTESIAN_POINT('',(3.99999999999999,-77.2740660916916,-20.7055236050785));
#329=DIRECTION('',(1.0,0.0,-0.0));
#330=DIRECTION('',(0.0,0.965925826296584,0.258819045074473));
#331=DIRECTION('',(0.0,-0.86602540383833,-0.499999999906658));
#332=DIRECTION('',(-1.0,0.0,0.0));
#333=DIRECTION('',(0.0,-0.86602540383833,-0.499999999906658));
#334=CARTESIAN_POINT('',(3.99999999999999,-77.2740661830579,-20.7055236444945));
#335=DIRECTION('',(-1.0,0.0,0.0));
#336=DIRECTION('',(0.0,0.965925826232189,0.258819045314798));
#337=CARTESIAN_POINT('',(-1.4210854715202E-014,-77.2740661830579,-20.7055236444945));
#338=DIRECTION('',(-1.0,0.0,0.0));
#339=DIRECTION('',(0.0,0.965925826232189,0.258819045314798));
#340=DIRECTION('',(0.0,1.0,5.32907051820074E-016));
#341=DIRECTION('',(0.0,1.0,5.32907051820074E-016));
ENDSEC;
END-ISO-10303-21;
