ISO-10303-21;
HEADER;
FILE_DESCRIPTION(('STEP AP214'),'1');
FILE_NAME('cctmp_4E7A368C-5691-4B95-9E69-461055584E16_2020_1_20_8_6_32_379..stp','2020-01-20T07:06:32',('Bosch Rexroth AG'),('CADClick - www.CADClick.com'),'Spatial InterOp 3D',' ','unknown authorization - (Healing Option Enabled)');
FILE_SCHEMA(('AUTOMOTIVE_DESIGN'));
ENDSEC;
DATA;
#1=MECHANICAL_DESIGN_GEOMETRIC_PRESENTATION_REPRESENTATION(' ',(#10,#11,#12,#13,#14,#15,#16,#17,#18,#19,#20),#6);
#2=PRODUCT_DEFINITION_CONTEXT('',#21,'design');
#3=APPLICATION_PROTOCOL_DEFINITION('INTERNATIONAL STANDARD','automotive_design',1994,#21);
#4=PRODUCT_CATEGORY_RELATIONSHIP('NONE','NONE',#22,#23);
#5=SHAPE_DEFINITION_REPRESENTATION(#24,#25);
#6= (GEOMETRIC_REPRESENTATION_CONTEXT(3)GLOBAL_UNCERTAINTY_ASSIGNED_CONTEXT((#28))GLOBAL_UNIT_ASSIGNED_CONTEXT((#30,#31,#32))REPRESENTATION_CONTEXT('NONE','WORKSPACE'));
#10=STYLED_ITEM('',(#34),#35);
#11=STYLED_ITEM('',(#36),#37);
#12=STYLED_ITEM('',(#38),#39);
#13=STYLED_ITEM('',(#40),#41);
#14=STYLED_ITEM('',(#42),#43);
#15=STYLED_ITEM('',(#44),#45);
#16=STYLED_ITEM('',(#46),#47);
#17=STYLED_ITEM('',(#48),#49);
#18=STYLED_ITEM('',(#50),#51);
#19=STYLED_ITEM('',(#52),#53);
#20=STYLED_ITEM('',(#54),#55);
#21=APPLICATION_CONTEXT(' ');
#22=PRODUCT_CATEGORY('part','NONE');
#23=PRODUCT_RELATED_PRODUCT_CATEGORY('detail',' ',(#56));
#24=PRODUCT_DEFINITION_SHAPE('NONE','NONE',#57);
#25=ADVANCED_BREP_SHAPE_REPRESENTATION('2020_01_20__08-06-32-379',(#55,#58),#6);
#28=UNCERTAINTY_MEASURE_WITH_UNIT(LENGTH_MEASURE(1.0E-006),#30,'','');
#30= (CONVERSION_BASED_UNIT('MILLIMETRE',#61)LENGTH_UNIT()NAMED_UNIT(#64));
#31= (NAMED_UNIT(#66)PLANE_ANGLE_UNIT()SI_UNIT($,.RADIAN.));
#32= (NAMED_UNIT(#66)SOLID_ANGLE_UNIT()SI_UNIT($,.STERADIAN.));
#34=PRESENTATION_STYLE_ASSIGNMENT((#72));
#35=ADVANCED_FACE('',(#73),#74,.F.);
#36=PRESENTATION_STYLE_ASSIGNMENT((#75));
#37=ADVANCED_FACE('',(#76),#77,.F.);
#38=PRESENTATION_STYLE_ASSIGNMENT((#78));
#39=ADVANCED_FACE('',(#79),#80,.F.);
#40=PRESENTATION_STYLE_ASSIGNMENT((#81));
#41=ADVANCED_FACE('',(#82),#83,.T.);
#42=PRESENTATION_STYLE_ASSIGNMENT((#84));
#43=ADVANCED_FACE('',(#85),#86,.T.);
#44=PRESENTATION_STYLE_ASSIGNMENT((#87));
#45=ADVANCED_FACE('',(#88),#89,.F.);
#46=PRESENTATION_STYLE_ASSIGNMENT((#90));
#47=ADVANCED_FACE('',(#91),#92,.T.);
#48=PRESENTATION_STYLE_ASSIGNMENT((#93));
#49=ADVANCED_FACE('',(#94),#95,.T.);
#50=PRESENTATION_STYLE_ASSIGNMENT((#96));
#51=ADVANCED_FACE('',(#97),#98,.F.);
#52=PRESENTATION_STYLE_ASSIGNMENT((#99));
#53=ADVANCED_FACE('',(#100),#101,.T.);
#54=PRESENTATION_STYLE_ASSIGNMENT((#102));
#55=MANIFOLD_SOLID_BREP('2020_01_20__08-06-32-379',#103);
#56=PRODUCT('2020_01_20__08-06-32-379','','PART--DESC',(#104));
#57=PRODUCT_DEFINITION('','NONE',#105,#2);
#58=AXIS2_PLACEMENT_3D('',#106,#107,#108);
#61=LENGTH_MEASURE_WITH_UNIT(LENGTH_MEASURE(1.0),#109);
#64=DIMENSIONAL_EXPONENTS(1.0,0.0,0.0,0.0,0.0,0.0,0.0);
#66=DIMENSIONAL_EXPONENTS(0.0,0.0,0.0,0.0,0.0,0.0,0.0);
#72=SURFACE_STYLE_USAGE(.BOTH.,#110);
#73=FACE_OUTER_BOUND('',#111,.T.);
#74=PLANE('',#112);
#75=SURFACE_STYLE_USAGE(.BOTH.,#113);
#76=FACE_OUTER_BOUND('',#114,.T.);
#77=PLANE('',#115);
#78=SURFACE_STYLE_USAGE(.BOTH.,#116);
#79=FACE_OUTER_BOUND('',#117,.T.);
#80=PLANE('',#118);
#81=SURFACE_STYLE_USAGE(.BOTH.,#119);
#82=FACE_OUTER_BOUND('',#120,.T.);
#83=PLANE('',#121);
#84=SURFACE_STYLE_USAGE(.BOTH.,#122);
#85=FACE_OUTER_BOUND('',#123,.T.);
#86=PLANE('',#124);
#87=SURFACE_STYLE_USAGE(.BOTH.,#125);
#88=FACE_OUTER_BOUND('',#126,.T.);
#89=PLANE('',#127);
#90=SURFACE_STYLE_USAGE(.BOTH.,#128);
#91=FACE_OUTER_BOUND('',#129,.T.);
#92=PLANE('',#130);
#93=SURFACE_STYLE_USAGE(.BOTH.,#131);
#94=FACE_OUTER_BOUND('',#132,.T.);
#95=PLANE('',#133);
#96=SURFACE_STYLE_USAGE(.BOTH.,#134);
#97=FACE_OUTER_BOUND('',#135,.T.);
#98=PLANE('',#136);
#99=SURFACE_STYLE_USAGE(.BOTH.,#137);
#100=FACE_OUTER_BOUND('',#138,.T.);
#101=PLANE('',#139);
#102=SURFACE_STYLE_USAGE(.BOTH.,#140);
#103=CLOSED_SHELL('',(#35,#37,#39,#41,#43,#45,#47,#49,#51,#53));
#104=PRODUCT_CONTEXT('',#21,'mechanical');
#105=PRODUCT_DEFINITION_FORMATION_WITH_SPECIFIED_SOURCE(' ','NONE',#56,.NOT_KNOWN.);
#106=CARTESIAN_POINT('',(0.0,0.0,0.0));
#107=DIRECTION('',(0.0,0.0,1.0));
#108=DIRECTION('',(1.0,0.0,0.0));
#109= (NAMED_UNIT(#64)LENGTH_UNIT()SI_UNIT(.MILLI.,.METRE.));
#110=SURFACE_SIDE_STYLE('',(#142));
#111=EDGE_LOOP('',(#143,#144,#145,#146,#147,#148,#149,#150));
#112=AXIS2_PLACEMENT_3D('',#151,#152,#153);
#113=SURFACE_SIDE_STYLE('',(#154));
#114=EDGE_LOOP('',(#155,#156,#157,#158));
#115=AXIS2_PLACEMENT_3D('',#159,#160,#161);
#116=SURFACE_SIDE_STYLE('',(#162));
#117=EDGE_LOOP('',(#163,#164,#165,#166));
#118=AXIS2_PLACEMENT_3D('',#167,#168,#169);
#119=SURFACE_SIDE_STYLE('',(#170));
#120=EDGE_LOOP('',(#171,#172,#173,#174));
#121=AXIS2_PLACEMENT_3D('',#175,#176,#177);
#122=SURFACE_SIDE_STYLE('',(#178));
#123=EDGE_LOOP('',(#179,#180,#181,#182,#183,#184,#185,#186));
#124=AXIS2_PLACEMENT_3D('',#187,#188,#189);
#125=SURFACE_SIDE_STYLE('',(#190));
#126=EDGE_LOOP('',(#191,#192,#193,#194));
#127=AXIS2_PLACEMENT_3D('',#195,#196,#197);
#128=SURFACE_SIDE_STYLE('',(#198));
#129=EDGE_LOOP('',(#199,#200,#201,#202));
#130=AXIS2_PLACEMENT_3D('',#203,#204,#205);
#131=SURFACE_SIDE_STYLE('',(#206));
#132=EDGE_LOOP('',(#207,#208,#209,#210));
#133=AXIS2_PLACEMENT_3D('',#211,#212,#213);
#134=SURFACE_SIDE_STYLE('',(#214));
#135=EDGE_LOOP('',(#215,#216,#217,#218));
#136=AXIS2_PLACEMENT_3D('',#219,#220,#221);
#137=SURFACE_SIDE_STYLE('',(#222));
#138=EDGE_LOOP('',(#223,#224,#225,#226));
#139=AXIS2_PLACEMENT_3D('',#227,#228,#229);
#140=SURFACE_SIDE_STYLE('',(#230));
#142=SURFACE_STYLE_FILL_AREA(#231);
#143=ORIENTED_EDGE('',*,*,#232,.T.);
#144=ORIENTED_EDGE('',*,*,#233,.F.);
#145=ORIENTED_EDGE('',*,*,#234,.F.);
#146=ORIENTED_EDGE('',*,*,#235,.F.);
#147=ORIENTED_EDGE('',*,*,#236,.T.);
#148=ORIENTED_EDGE('',*,*,#237,.F.);
#149=ORIENTED_EDGE('',*,*,#238,.T.);
#150=ORIENTED_EDGE('',*,*,#239,.F.);
#151=CARTESIAN_POINT('',(-9.0,0.0,0.0));
#152=DIRECTION('',(1.0,0.0,0.0));
#153=DIRECTION('',(0.0,1.0,-0.0));
#154=SURFACE_STYLE_FILL_AREA(#240);
#155=ORIENTED_EDGE('',*,*,#241,.T.);
#156=ORIENTED_EDGE('',*,*,#242,.F.);
#157=ORIENTED_EDGE('',*,*,#243,.T.);
#158=ORIENTED_EDGE('',*,*,#232,.F.);
#159=CARTESIAN_POINT('',(-8.0,-18.0,2.5));
#160=DIRECTION('',(0.0,-0.707106781186547,0.707106781186548));
#161=DIRECTION('',(-1.0,0.0,0.0));
#162=SURFACE_STYLE_FILL_AREA(#244);
#163=ORIENTED_EDGE('',*,*,#245,.F.);
#164=ORIENTED_EDGE('',*,*,#246,.T.);
#165=ORIENTED_EDGE('',*,*,#241,.F.);
#166=ORIENTED_EDGE('',*,*,#239,.T.);
#167=CARTESIAN_POINT('',(-9.0,2.20436423846524E-015,18.0));
#168=DIRECTION('',(0.0,1.22464679914735E-016,1.0));
#169=DIRECTION('',(1.0,-0.0,0.0));
#170=SURFACE_STYLE_FILL_AREA(#247);
#171=ORIENTED_EDGE('',*,*,#245,.T.);
#172=ORIENTED_EDGE('',*,*,#238,.F.);
#173=ORIENTED_EDGE('',*,*,#248,.T.);
#174=ORIENTED_EDGE('',*,*,#249,.F.);
#175=CARTESIAN_POINT('',(-9.0,0.0,0.0));
#176=DIRECTION('',(0.0,1.0,-1.22464679914735E-016));
#177=DIRECTION('',(1.0,0.0,0.0));
#178=SURFACE_STYLE_FILL_AREA(#250);
#179=ORIENTED_EDGE('',*,*,#242,.T.);
#180=ORIENTED_EDGE('',*,*,#246,.F.);
#181=ORIENTED_EDGE('',*,*,#249,.T.);
#182=ORIENTED_EDGE('',*,*,#251,.T.);
#183=ORIENTED_EDGE('',*,*,#252,.F.);
#184=ORIENTED_EDGE('',*,*,#253,.T.);
#185=ORIENTED_EDGE('',*,*,#254,.F.);
#186=ORIENTED_EDGE('',*,*,#255,.F.);
#187=CARTESIAN_POINT('',(9.0,0.0,0.0));
#188=DIRECTION('',(1.0,0.0,0.0));
#189=DIRECTION('',(0.0,1.0,-0.0));
#190=SURFACE_STYLE_FILL_AREA(#256);
#191=ORIENTED_EDGE('',*,*,#243,.F.);
#192=ORIENTED_EDGE('',*,*,#255,.T.);
#193=ORIENTED_EDGE('',*,*,#257,.F.);
#194=ORIENTED_EDGE('',*,*,#233,.T.);
#195=CARTESIAN_POINT('',(-9.0,-18.0,20.0));
#196=DIRECTION('',(0.0,-1.0,1.22464679914735E-016));
#197=DIRECTION('',(-1.0,0.0,0.0));
#198=SURFACE_STYLE_FILL_AREA(#258);
#199=ORIENTED_EDGE('',*,*,#257,.T.);
#200=ORIENTED_EDGE('',*,*,#254,.T.);
#201=ORIENTED_EDGE('',*,*,#259,.F.);
#202=ORIENTED_EDGE('',*,*,#234,.T.);
#203=CARTESIAN_POINT('',(-9.0,-20.0,2.44929359829471E-015));
#204=DIRECTION('',(0.0,-1.22464679914735E-016,-1.0));
#205=DIRECTION('',(0.0,-1.0,1.22464679914735E-016));
#206=SURFACE_STYLE_FILL_AREA(#260);
#207=ORIENTED_EDGE('',*,*,#261,.F.);
#208=ORIENTED_EDGE('',*,*,#235,.T.);
#209=ORIENTED_EDGE('',*,*,#259,.T.);
#210=ORIENTED_EDGE('',*,*,#253,.F.);
#211=CARTESIAN_POINT('',(-9.0,-20.0,20.0));
#212=DIRECTION('',(0.0,-1.0,1.22464679914735E-016));
#213=DIRECTION('',(-1.0,0.0,0.0));
#214=SURFACE_STYLE_FILL_AREA(#262);
#215=ORIENTED_EDGE('',*,*,#236,.F.);
#216=ORIENTED_EDGE('',*,*,#261,.T.);
#217=ORIENTED_EDGE('',*,*,#252,.T.);
#218=ORIENTED_EDGE('',*,*,#263,.F.);
#219=CARTESIAN_POINT('',(9.0,-20.0,4.742640687119));
#220=DIRECTION('',(0.0,0.707106781186547,-0.707106781186548));
#221=DIRECTION('',(-1.0,0.0,0.0));
#222=SURFACE_STYLE_FILL_AREA(#264);
#223=ORIENTED_EDGE('',*,*,#263,.T.);
#224=ORIENTED_EDGE('',*,*,#251,.F.);
#225=ORIENTED_EDGE('',*,*,#248,.F.);
#226=ORIENTED_EDGE('',*,*,#237,.T.);
#227=CARTESIAN_POINT('',(-9.0,2.44929359829471E-015,20.0));
#228=DIRECTION('',(0.0,1.22464679914735E-016,1.0));
#229=DIRECTION('',(1.0,-0.0,0.0));
#230=SURFACE_STYLE_FILL_AREA(#265);
#231=FILL_AREA_STYLE('',(#266));
#232=EDGE_CURVE('',#267,#268,#269,.T.);
#233=EDGE_CURVE('',#270,#268,#271,.T.);
#234=EDGE_CURVE('',#272,#270,#273,.T.);
#235=EDGE_CURVE('',#274,#272,#275,.T.);
#236=EDGE_CURVE('',#274,#276,#277,.T.);
#237=EDGE_CURVE('',#278,#276,#279,.T.);
#238=EDGE_CURVE('',#278,#280,#281,.T.);
#239=EDGE_CURVE('',#267,#280,#282,.T.);
#240=FILL_AREA_STYLE('',(#283));
#241=EDGE_CURVE('',#267,#284,#285,.T.);
#242=EDGE_CURVE('',#286,#284,#287,.T.);
#243=EDGE_CURVE('',#286,#268,#288,.T.);
#244=FILL_AREA_STYLE('',(#289));
#245=EDGE_CURVE('',#290,#280,#291,.T.);
#246=EDGE_CURVE('',#290,#284,#292,.T.);
#247=FILL_AREA_STYLE('',(#293));
#248=EDGE_CURVE('',#278,#294,#295,.T.);
#249=EDGE_CURVE('',#290,#294,#296,.T.);
#250=FILL_AREA_STYLE('',(#297));
#251=EDGE_CURVE('',#294,#298,#299,.T.);
#252=EDGE_CURVE('',#300,#298,#301,.T.);
#253=EDGE_CURVE('',#300,#302,#303,.T.);
#254=EDGE_CURVE('',#304,#302,#305,.T.);
#255=EDGE_CURVE('',#286,#304,#306,.T.);
#256=FILL_AREA_STYLE('',(#307));
#257=EDGE_CURVE('',#270,#304,#308,.T.);
#258=FILL_AREA_STYLE('',(#309));
#259=EDGE_CURVE('',#272,#302,#310,.T.);
#260=FILL_AREA_STYLE('',(#311));
#261=EDGE_CURVE('',#274,#300,#312,.T.);
#262=FILL_AREA_STYLE('',(#313));
#263=EDGE_CURVE('',#276,#298,#314,.T.);
#264=FILL_AREA_STYLE('',(#315));
#265=FILL_AREA_STYLE('',(#316));
#266=FILL_AREA_STYLE_COLOUR('',#317);
#267=VERTEX_POINT('',#318);
#268=VERTEX_POINT('',#319);
#269=LINE('',#320,#321);
#270=VERTEX_POINT('',#322);
#271=LINE('',#323,#324);
#272=VERTEX_POINT('',#325);
#273=LINE('',#326,#327);
#274=VERTEX_POINT('',#328);
#275=LINE('',#329,#330);
#276=VERTEX_POINT('',#331);
#277=LINE('',#332,#333);
#278=VERTEX_POINT('',#334);
#279=LINE('',#335,#336);
#280=VERTEX_POINT('',#337);
#281=LINE('',#338,#339);
#282=LINE('',#340,#341);
#283=FILL_AREA_STYLE_COLOUR('',#342);
#284=VERTEX_POINT('',#343);
#285=LINE('',#344,#345);
#286=VERTEX_POINT('',#346);
#287=LINE('',#347,#348);
#288=LINE('',#349,#350);
#289=FILL_AREA_STYLE_COLOUR('',#351);
#290=VERTEX_POINT('',#352);
#291=LINE('',#353,#354);
#292=LINE('',#355,#356);
#293=FILL_AREA_STYLE_COLOUR('',#357);
#294=VERTEX_POINT('',#358);
#295=LINE('',#359,#360);
#296=LINE('',#361,#362);
#297=FILL_AREA_STYLE_COLOUR('',#363);
#298=VERTEX_POINT('',#364);
#299=LINE('',#365,#366);
#300=VERTEX_POINT('',#367);
#301=LINE('',#368,#369);
#302=VERTEX_POINT('',#370);
#303=LINE('',#371,#372);
#304=VERTEX_POINT('',#373);
#305=LINE('',#374,#375);
#306=LINE('',#376,#377);
#307=FILL_AREA_STYLE_COLOUR('',#378);
#308=LINE('',#379,#380);
#309=FILL_AREA_STYLE_COLOUR('',#381);
#310=LINE('',#382,#383);
#311=FILL_AREA_STYLE_COLOUR('',#384);
#312=LINE('',#385,#386);
#313=FILL_AREA_STYLE_COLOUR('',#387);
#314=LINE('',#388,#389);
#315=FILL_AREA_STYLE_COLOUR('',#390);
#316=FILL_AREA_STYLE_COLOUR('',#391);
#317=COLOUR_RGB('',0.61176472902298,0.61176472902298,0.650980412960052);
#318=CARTESIAN_POINT('',(-9.0,-2.5,18.0));
#319=CARTESIAN_POINT('',(-9.0,-18.0,2.5));
#320=CARTESIAN_POINT('',(-9.0,-2.5,18.0));
#321=VECTOR('',#392,21.920310216783);
#322=CARTESIAN_POINT('',(-9.0,-18.0,2.20436423846524E-015));
#323=CARTESIAN_POINT('',(-9.0,-18.0,2.20436423846524E-015));
#324=VECTOR('',#393,2.5);
#325=CARTESIAN_POINT('',(-9.0,-20.0,2.44929359829471E-015));
#326=CARTESIAN_POINT('',(-9.0,-20.0,2.44929359829471E-015));
#327=VECTOR('',#394,2.0);
#328=CARTESIAN_POINT('',(-9.0,-20.0,4.742640687119));
#329=CARTESIAN_POINT('',(-9.0,-20.0,4.742640687119));
#330=VECTOR('',#395,4.742640687119);
#331=CARTESIAN_POINT('',(-9.0,-4.742640687119,20.0));
#332=CARTESIAN_POINT('',(-9.0,-20.0,4.742640687119));
#333=VECTOR('',#396,21.5771644662758);
#334=CARTESIAN_POINT('',(-9.0,2.44929359829471E-015,20.0));
#335=CARTESIAN_POINT('',(-9.0,2.44929359829471E-015,20.0));
#336=VECTOR('',#397,4.742640687119);
#337=CARTESIAN_POINT('',(-9.0,2.20436423846524E-015,18.0));
#338=CARTESIAN_POINT('',(-9.0,2.44929359829471E-015,20.0));
#339=VECTOR('',#398,2.0);
#340=CARTESIAN_POINT('',(-9.0,-2.5,18.0));
#341=VECTOR('',#399,2.5);
#342=COLOUR_RGB('',0.61176472902298,0.61176472902298,0.650980412960052);
#343=CARTESIAN_POINT('',(9.0,-2.5,18.0));
#344=CARTESIAN_POINT('',(-9.0,-2.5,18.0));
#345=VECTOR('',#400,18.0);
#346=CARTESIAN_POINT('',(9.0,-18.0,2.5));
#347=CARTESIAN_POINT('',(9.0,-18.0,2.5));
#348=VECTOR('',#401,21.920310216783);
#349=CARTESIAN_POINT('',(9.0,-18.0,2.5));
#350=VECTOR('',#402,18.0);
#351=COLOUR_RGB('',0.61176472902298,0.61176472902298,0.650980412960052);
#352=CARTESIAN_POINT('',(9.0,2.20436423846524E-015,18.0));
#353=CARTESIAN_POINT('',(9.0,2.20436423846524E-015,18.0));
#354=VECTOR('',#403,18.0);
#355=CARTESIAN_POINT('',(9.0,2.20436423846524E-015,18.0));
#356=VECTOR('',#404,2.5);
#357=COLOUR_RGB('',0.61176472902298,0.61176472902298,0.650980412960052);
#358=CARTESIAN_POINT('',(9.0,2.44929359829471E-015,20.0));
#359=CARTESIAN_POINT('',(-9.0,2.44929359829471E-015,20.0));
#360=VECTOR('',#405,18.0);
#361=CARTESIAN_POINT('',(9.0,2.20436423846524E-015,18.0));
#362=VECTOR('',#406,2.0);
#363=COLOUR_RGB('',0.61176472902298,0.61176472902298,0.650980412960052);
#364=CARTESIAN_POINT('',(9.0,-4.742640687119,20.0));
#365=CARTESIAN_POINT('',(9.0,2.44929359829471E-015,20.0));
#366=VECTOR('',#407,4.742640687119);
#367=CARTESIAN_POINT('',(9.0,-20.0,4.742640687119));
#368=CARTESIAN_POINT('',(9.0,-20.0,4.742640687119));
#369=VECTOR('',#408,21.5771644662758);
#370=CARTESIAN_POINT('',(9.0,-20.0,2.44929359829471E-015));
#371=CARTESIAN_POINT('',(9.0,-20.0,4.742640687119));
#372=VECTOR('',#409,4.742640687119);
#373=CARTESIAN_POINT('',(9.0,-18.0,2.20436423846524E-015));
#374=CARTESIAN_POINT('',(9.0,-18.0,2.20436423846524E-015));
#375=VECTOR('',#410,2.0);
#376=CARTESIAN_POINT('',(9.0,-18.0,2.5));
#377=VECTOR('',#411,2.5);
#378=COLOUR_RGB('',0.61176472902298,0.61176472902298,0.650980412960052);
#379=CARTESIAN_POINT('',(-9.0,-18.0,2.20436423846524E-015));
#380=VECTOR('',#412,18.0);
#381=COLOUR_RGB('',0.61176472902298,0.61176472902298,0.650980412960052);
#382=CARTESIAN_POINT('',(-9.0,-20.0,2.44929359829471E-015));
#383=VECTOR('',#413,18.0);
#384=COLOUR_RGB('',0.61176472902298,0.61176472902298,0.650980412960052);
#385=CARTESIAN_POINT('',(-9.0,-20.0,4.742640687119));
#386=VECTOR('',#414,18.0);
#387=COLOUR_RGB('',0.61176472902298,0.61176472902298,0.650980412960052);
#388=CARTESIAN_POINT('',(-9.0,-4.742640687119,20.0));
#389=VECTOR('',#415,18.0);
#390=COLOUR_RGB('',0.61176472902298,0.61176472902298,0.650980412960052);
#391=COLOUR_RGB('',0.61176472902298,0.61176472902298,0.650980412960052);
#392=DIRECTION('',(0.0,-0.707106781186548,-0.707106781186547));
#393=DIRECTION('',(0.0,1.22464679914735E-016,1.0));
#394=DIRECTION('',(0.0,1.0,-1.22464679914735E-016));
#395=DIRECTION('',(0.0,-1.22464679914735E-016,-1.0));
#396=DIRECTION('',(0.0,0.707106781186548,0.707106781186547));
#397=DIRECTION('',(0.0,-1.0,1.22464679914735E-016));
#398=DIRECTION('',(0.0,-1.22464679914735E-016,-1.0));
#399=DIRECTION('',(0.0,1.0,-1.22464679914735E-016));
#400=DIRECTION('',(1.0,0.0,0.0));
#401=DIRECTION('',(0.0,0.707106781186548,0.707106781186547));
#402=DIRECTION('',(-1.0,0.0,0.0));
#403=DIRECTION('',(-1.0,0.0,0.0));
#404=DIRECTION('',(0.0,-1.0,1.22464679914735E-016));
#405=DIRECTION('',(1.0,0.0,0.0));
#406=DIRECTION('',(0.0,1.22464679914735E-016,1.0));
#407=DIRECTION('',(0.0,-1.0,1.22464679914735E-016));
#408=DIRECTION('',(0.0,0.707106781186548,0.707106781186547));
#409=DIRECTION('',(0.0,-1.22464679914735E-016,-1.0));
#410=DIRECTION('',(0.0,-1.0,1.22464679914735E-016));
#411=DIRECTION('',(0.0,-1.22464679914735E-016,-1.0));
#412=DIRECTION('',(1.0,0.0,0.0));
#413=DIRECTION('',(1.0,0.0,0.0));
#414=DIRECTION('',(1.0,0.0,0.0));
#415=DIRECTION('',(1.0,0.0,0.0));
ENDSEC;
END-ISO-10303-21;
