ISO-10303-21;
HEADER;
FILE_DESCRIPTION(('STEP AP214'),'1');
FILE_NAME('cctmp_985F6F10-5ED9-418F-8FCF-0F47A79C3BF5_2020_1_17_7_47_46_60..stp','2020-01-17T06:47:46',('Bosch Rexroth AG'),('CADClick - www.CADClick.com'),'Spatial InterOp 3D',' ','unknown authorization - (Healing Option Enabled)');
FILE_SCHEMA(('AUTOMOTIVE_DESIGN'));
ENDSEC;
DATA;
#1=MECHANICAL_DESIGN_GEOMETRIC_PRESENTATION_REPRESENTATION(' ',(#10,#11,#12,#13,#14,#15,#16,#17,#18,#19,#20,#21,#22,#23,#24,#25,#26),#6);
#2=PRODUCT_DEFINITION_CONTEXT('',#27,'design');
#3=APPLICATION_PROTOCOL_DEFINITION('INTERNATIONAL STANDARD','automotive_design',1994,#27);
#4=PRODUCT_CATEGORY_RELATIONSHIP('NONE','NONE',#28,#29);
#5=SHAPE_DEFINITION_REPRESENTATION(#30,#31);
#6= (GEOMETRIC_REPRESENTATION_CONTEXT(3)GLOBAL_UNCERTAINTY_ASSIGNED_CONTEXT((#34))GLOBAL_UNIT_ASSIGNED_CONTEXT((#36,#37,#38))REPRESENTATION_CONTEXT('NONE','WORKSPACE'));
#10=STYLED_ITEM('',(#40),#41);
#11=STYLED_ITEM('',(#42),#43);
#12=STYLED_ITEM('',(#44),#45);
#13=STYLED_ITEM('',(#46),#47);
#14=STYLED_ITEM('',(#48),#49);
#15=STYLED_ITEM('',(#50),#51);
#16=STYLED_ITEM('',(#52),#53);
#17=STYLED_ITEM('',(#54),#55);
#18=STYLED_ITEM('',(#56),#57);
#19=STYLED_ITEM('',(#58),#59);
#20=STYLED_ITEM('',(#60),#61);
#21=STYLED_ITEM('',(#62),#63);
#22=STYLED_ITEM('',(#64),#65);
#23=STYLED_ITEM('',(#66),#67);
#24=STYLED_ITEM('',(#68),#69);
#25=STYLED_ITEM('',(#70),#71);
#26=STYLED_ITEM('',(#72),#73);
#27=APPLICATION_CONTEXT(' ');
#28=PRODUCT_CATEGORY('part','NONE');
#29=PRODUCT_RELATED_PRODUCT_CATEGORY('detail',' ',(#74));
#30=PRODUCT_DEFINITION_SHAPE('NONE','NONE',#75);
#31=ADVANCED_BREP_SHAPE_REPRESENTATION('2020_01_17__07-47-46-060',(#73,#76),#6);
#34=UNCERTAINTY_MEASURE_WITH_UNIT(LENGTH_MEASURE(1.0E-006),#36,'','');
#36= (CONVERSION_BASED_UNIT('MILLIMETRE',#79)LENGTH_UNIT()NAMED_UNIT(#82));
#37= (NAMED_UNIT(#84)PLANE_ANGLE_UNIT()SI_UNIT($,.RADIAN.));
#38= (NAMED_UNIT(#84)SOLID_ANGLE_UNIT()SI_UNIT($,.STERADIAN.));
#40=PRESENTATION_STYLE_ASSIGNMENT((#90));
#41=ADVANCED_FACE('',(#91),#92,.T.);
#42=PRESENTATION_STYLE_ASSIGNMENT((#93));
#43=ADVANCED_FACE('',(#94),#95,.T.);
#44=PRESENTATION_STYLE_ASSIGNMENT((#96));
#45=ADVANCED_FACE('',(#97),#98,.T.);
#46=PRESENTATION_STYLE_ASSIGNMENT((#99));
#47=ADVANCED_FACE('',(#100),#101,.T.);
#48=PRESENTATION_STYLE_ASSIGNMENT((#102));
#49=ADVANCED_FACE('',(#103),#104,.T.);
#50=PRESENTATION_STYLE_ASSIGNMENT((#105));
#51=ADVANCED_FACE('',(#106),#107,.T.);
#52=PRESENTATION_STYLE_ASSIGNMENT((#108));
#53=ADVANCED_FACE('',(#109),#110,.F.);
#54=PRESENTATION_STYLE_ASSIGNMENT((#111));
#55=ADVANCED_FACE('',(#112),#113,.F.);
#56=PRESENTATION_STYLE_ASSIGNMENT((#114));
#57=ADVANCED_FACE('',(#115,#116),#117,.T.);
#58=PRESENTATION_STYLE_ASSIGNMENT((#118));
#59=ADVANCED_FACE('',(#119),#120,.T.);
#60=PRESENTATION_STYLE_ASSIGNMENT((#121));
#61=ADVANCED_FACE('',(#122),#123,.T.);
#62=PRESENTATION_STYLE_ASSIGNMENT((#124));
#63=ADVANCED_FACE('',(#125),#126,.T.);
#64=PRESENTATION_STYLE_ASSIGNMENT((#127));
#65=ADVANCED_FACE('',(#128),#129,.T.);
#66=PRESENTATION_STYLE_ASSIGNMENT((#130));
#67=ADVANCED_FACE('',(#131),#132,.T.);
#68=PRESENTATION_STYLE_ASSIGNMENT((#133));
#69=ADVANCED_FACE('',(#134),#135,.T.);
#70=PRESENTATION_STYLE_ASSIGNMENT((#136));
#71=ADVANCED_FACE('',(#137),#138,.T.);
#72=PRESENTATION_STYLE_ASSIGNMENT((#139));
#73=MANIFOLD_SOLID_BREP('2020_01_17__07-47-46-060',#140);
#74=PRODUCT('2020_01_17__07-47-46-060','','PART--DESC',(#141));
#75=PRODUCT_DEFINITION('','NONE',#142,#2);
#76=AXIS2_PLACEMENT_3D('',#143,#144,#145);
#79=LENGTH_MEASURE_WITH_UNIT(LENGTH_MEASURE(1.0),#146);
#82=DIMENSIONAL_EXPONENTS(1.0,0.0,0.0,0.0,0.0,0.0,0.0);
#84=DIMENSIONAL_EXPONENTS(0.0,0.0,0.0,0.0,0.0,0.0,0.0);
#90=SURFACE_STYLE_USAGE(.BOTH.,#147);
#91=FACE_OUTER_BOUND('',#148,.T.);
#92=CONICAL_SURFACE('',#149,0.9273957131296,1.5305875133317);
#93=SURFACE_STYLE_USAGE(.BOTH.,#150);
#94=FACE_OUTER_BOUND('',#151,.T.);
#95=CONICAL_SURFACE('',#152,2.869856008238,1.43732918558873);
#96=SURFACE_STYLE_USAGE(.BOTH.,#153);
#97=FACE_OUTER_BOUND('',#154,.T.);
#98=CONICAL_SURFACE('',#155,5.163664197339,1.32898557403332);
#99=SURFACE_STYLE_USAGE(.BOTH.,#156);
#100=FACE_OUTER_BOUND('',#157,.T.);
#101=CYLINDRICAL_SURFACE('',#158,6.3225);
#102=SURFACE_STYLE_USAGE(.BOTH.,#159);
#103=FACE_OUTER_BOUND('',#160,.T.);
#104=CONICAL_SURFACE('',#161,5.91125,0.785398163397448);
#105=SURFACE_STYLE_USAGE(.BOTH.,#162);
#106=FACE_OUTER_BOUND('',#163,.T.);
#107=CYLINDRICAL_SURFACE('',#164,5.5);
#108=SURFACE_STYLE_USAGE(.BOTH.,#165);
#109=FACE_OUTER_BOUND('',#166,.T.);
#110=CYLINDRICAL_SURFACE('',#167,4.7);
#111=SURFACE_STYLE_USAGE(.BOTH.,#168);
#112=FACE_OUTER_BOUND('',#169,.T.);
#113=CYLINDRICAL_SURFACE('',#170,4.7);
#114=SURFACE_STYLE_USAGE(.BOTH.,#171);
#115=FACE_OUTER_BOUND('',#172,.T.);
#116=FACE_BOUND('',#173,.T.);
#117=PLANE('',#174);
#118=SURFACE_STYLE_USAGE(.BOTH.,#175);
#119=FACE_OUTER_BOUND('',#176,.T.);
#120=CYLINDRICAL_SURFACE('',#177,5.5);
#121=SURFACE_STYLE_USAGE(.BOTH.,#178);
#122=FACE_OUTER_BOUND('',#179,.T.);
#123=CONICAL_SURFACE('',#180,5.91125,0.785398163397448);
#124=SURFACE_STYLE_USAGE(.BOTH.,#181);
#125=FACE_OUTER_BOUND('',#182,.T.);
#126=CYLINDRICAL_SURFACE('',#183,6.3225);
#127=SURFACE_STYLE_USAGE(.BOTH.,#184);
#128=FACE_OUTER_BOUND('',#185,.T.);
#129=CONICAL_SURFACE('',#186,5.163664197339,1.32898557403332);
#130=SURFACE_STYLE_USAGE(.BOTH.,#187);
#131=FACE_OUTER_BOUND('',#188,.T.);
#132=CONICAL_SURFACE('',#189,2.869856008238,1.43732918558873);
#133=SURFACE_STYLE_USAGE(.BOTH.,#190);
#134=FACE_OUTER_BOUND('',#191,.T.);
#135=CONICAL_SURFACE('',#192,0.9273957131296,1.5305875133317);
#136=SURFACE_STYLE_USAGE(.BOTH.,#193);
#137=FACE_OUTER_BOUND('',#194,.T.);
#138=PLANE('',#195);
#139=SURFACE_STYLE_USAGE(.BOTH.,#196);
#140=CLOSED_SHELL('',(#41,#43,#45,#47,#49,#51,#53,#55,#57,#59,#61,#63,#65,#67,#69,#71));
#141=PRODUCT_CONTEXT('',#27,'mechanical');
#142=PRODUCT_DEFINITION_FORMATION_WITH_SPECIFIED_SOURCE(' ','NONE',#74,.NOT_KNOWN.);
#143=CARTESIAN_POINT('',(0.0,0.0,0.0));
#144=DIRECTION('',(0.0,0.0,1.0));
#145=DIRECTION('',(1.0,0.0,0.0));
#146= (NAMED_UNIT(#82)LENGTH_UNIT()SI_UNIT(.MILLI.,.METRE.));
#147=SURFACE_SIDE_STYLE('',(#198));
#148=EDGE_LOOP('',(#199,#200,#201));
#149=AXIS2_PLACEMENT_3D('',#202,#203,#204);
#150=SURFACE_SIDE_STYLE('',(#205));
#151=EDGE_LOOP('',(#206,#207,#208,#209));
#152=AXIS2_PLACEMENT_3D('',#210,#211,#212);
#153=SURFACE_SIDE_STYLE('',(#213));
#154=EDGE_LOOP('',(#214,#215,#216,#217));
#155=AXIS2_PLACEMENT_3D('',#218,#219,#220);
#156=SURFACE_SIDE_STYLE('',(#221));
#157=EDGE_LOOP('',(#222,#223,#224,#225));
#158=AXIS2_PLACEMENT_3D('',#226,#227,#228);
#159=SURFACE_SIDE_STYLE('',(#229));
#160=EDGE_LOOP('',(#230,#231,#232,#233));
#161=AXIS2_PLACEMENT_3D('',#234,#235,#236);
#162=SURFACE_SIDE_STYLE('',(#237));
#163=EDGE_LOOP('',(#238,#239,#240,#241));
#164=AXIS2_PLACEMENT_3D('',#242,#243,#244);
#165=SURFACE_SIDE_STYLE('',(#245));
#166=EDGE_LOOP('',(#246,#247,#248,#249));
#167=AXIS2_PLACEMENT_3D('',#250,#251,#252);
#168=SURFACE_SIDE_STYLE('',(#253));
#169=EDGE_LOOP('',(#254,#255,#256,#257));
#170=AXIS2_PLACEMENT_3D('',#258,#259,#260);
#171=SURFACE_SIDE_STYLE('',(#261));
#172=EDGE_LOOP('',(#262,#263));
#173=EDGE_LOOP('',(#264,#265));
#174=AXIS2_PLACEMENT_3D('',#266,#267,#268);
#175=SURFACE_SIDE_STYLE('',(#269));
#176=EDGE_LOOP('',(#270,#271,#272,#273));
#177=AXIS2_PLACEMENT_3D('',#274,#275,#276);
#178=SURFACE_SIDE_STYLE('',(#277));
#179=EDGE_LOOP('',(#278,#279,#280,#281));
#180=AXIS2_PLACEMENT_3D('',#282,#283,#284);
#181=SURFACE_SIDE_STYLE('',(#285));
#182=EDGE_LOOP('',(#286,#287,#288,#289));
#183=AXIS2_PLACEMENT_3D('',#290,#291,#292);
#184=SURFACE_SIDE_STYLE('',(#293));
#185=EDGE_LOOP('',(#294,#295,#296,#297));
#186=AXIS2_PLACEMENT_3D('',#298,#299,#300);
#187=SURFACE_SIDE_STYLE('',(#301));
#188=EDGE_LOOP('',(#302,#303,#304,#305));
#189=AXIS2_PLACEMENT_3D('',#306,#307,#308);
#190=SURFACE_SIDE_STYLE('',(#309));
#191=EDGE_LOOP('',(#310,#311,#312));
#192=AXIS2_PLACEMENT_3D('',#313,#314,#315);
#193=SURFACE_SIDE_STYLE('',(#316));
#194=EDGE_LOOP('',(#317,#318));
#195=AXIS2_PLACEMENT_3D('',#319,#320,#321);
#196=SURFACE_SIDE_STYLE('',(#322));
#198=SURFACE_STYLE_FILL_AREA(#323);
#199=ORIENTED_EDGE('',*,*,#324,.T.);
#200=ORIENTED_EDGE('',*,*,#325,.T.);
#201=ORIENTED_EDGE('',*,*,#326,.F.);
#202=CARTESIAN_POINT('',(-4.962690409853,0.0,0.0));
#203=DIRECTION('',(1.0,-6.12323399573677E-017,0.0));
#204=DIRECTION('',(-6.12323399573677E-017,-1.0,0.0));
#205=SURFACE_STYLE_FILL_AREA(#327);
#206=ORIENTED_EDGE('',*,*,#328,.F.);
#207=ORIENTED_EDGE('',*,*,#329,.T.);
#208=ORIENTED_EDGE('',*,*,#330,.F.);
#209=ORIENTED_EDGE('',*,*,#331,.F.);
#210=CARTESIAN_POINT('',(-4.77781732394396,0.0,0.0));
#211=DIRECTION('',(1.0,-6.12323399573676E-017,0.0));
#212=DIRECTION('',(-6.12323399573677E-017,-1.0,0.0));
#213=SURFACE_STYLE_FILL_AREA(#332);
#214=ORIENTED_EDGE('',*,*,#333,.F.);
#215=ORIENTED_EDGE('',*,*,#331,.T.);
#216=ORIENTED_EDGE('',*,*,#334,.F.);
#217=ORIENTED_EDGE('',*,*,#335,.F.);
#218=CARTESIAN_POINT('',(-4.33961838427501,0.0,0.0));
#219=DIRECTION('',(1.0,-6.12323399573677E-017,0.0));
#220=DIRECTION('',(-6.12323399573677E-017,-1.0,0.0));
#221=SURFACE_STYLE_FILL_AREA(#336);
#222=ORIENTED_EDGE('',*,*,#337,.F.);
#223=ORIENTED_EDGE('',*,*,#335,.T.);
#224=ORIENTED_EDGE('',*,*,#338,.F.);
#225=ORIENTED_EDGE('',*,*,#339,.F.);
#226=CARTESIAN_POINT('',(-5.25,0.0,0.0));
#227=DIRECTION('',(1.0,-6.12323399573677E-017,0.0));
#228=DIRECTION('',(-6.12323399573677E-017,-1.0,0.0));
#229=SURFACE_STYLE_FILL_AREA(#340);
#230=ORIENTED_EDGE('',*,*,#341,.F.);
#231=ORIENTED_EDGE('',*,*,#342,.F.);
#232=ORIENTED_EDGE('',*,*,#343,.F.);
#233=ORIENTED_EDGE('',*,*,#339,.T.);
#234=CARTESIAN_POINT('',(-3.41125,0.0,0.0));
#235=DIRECTION('',(-1.0,6.12323399573677E-017,-0.0));
#236=DIRECTION('',(6.12323399573677E-017,1.0,0.0));
#237=SURFACE_STYLE_FILL_AREA(#344);
#238=ORIENTED_EDGE('',*,*,#345,.F.);
#239=ORIENTED_EDGE('',*,*,#342,.T.);
#240=ORIENTED_EDGE('',*,*,#346,.F.);
#241=ORIENTED_EDGE('',*,*,#347,.F.);
#242=CARTESIAN_POINT('',(-5.25,0.0,0.0));
#243=DIRECTION('',(1.0,-6.12323399573677E-017,0.0));
#244=DIRECTION('',(-6.12323399573677E-017,-1.0,0.0));
#245=SURFACE_STYLE_FILL_AREA(#348);
#246=ORIENTED_EDGE('',*,*,#349,.F.);
#247=ORIENTED_EDGE('',*,*,#350,.T.);
#248=ORIENTED_EDGE('',*,*,#351,.F.);
#249=ORIENTED_EDGE('',*,*,#352,.T.);
#250=CARTESIAN_POINT('',(-5.25,0.0,0.0));
#251=DIRECTION('',(1.0,-6.12323399573677E-017,0.0));
#252=DIRECTION('',(-6.12323399573677E-017,-1.0,0.0));
#253=SURFACE_STYLE_FILL_AREA(#353);
#254=ORIENTED_EDGE('',*,*,#349,.T.);
#255=ORIENTED_EDGE('',*,*,#354,.T.);
#256=ORIENTED_EDGE('',*,*,#351,.T.);
#257=ORIENTED_EDGE('',*,*,#355,.T.);
#258=CARTESIAN_POINT('',(-5.25,0.0,0.0));
#259=DIRECTION('',(1.0,-6.12323399573677E-017,0.0));
#260=DIRECTION('',(-6.12323399573677E-017,-1.0,0.0));
#261=SURFACE_STYLE_FILL_AREA(#356);
#262=ORIENTED_EDGE('',*,*,#347,.T.);
#263=ORIENTED_EDGE('',*,*,#357,.T.);
#264=ORIENTED_EDGE('',*,*,#350,.F.);
#265=ORIENTED_EDGE('',*,*,#355,.F.);
#266=CARTESIAN_POINT('',(0.0,0.0,0.0));
#267=DIRECTION('',(1.0,-6.12323399573677E-017,0.0));
#268=DIRECTION('',(-6.12323399573677E-017,-1.0,0.0));
#269=SURFACE_STYLE_FILL_AREA(#358);
#270=ORIENTED_EDGE('',*,*,#345,.T.);
#271=ORIENTED_EDGE('',*,*,#357,.F.);
#272=ORIENTED_EDGE('',*,*,#346,.T.);
#273=ORIENTED_EDGE('',*,*,#359,.T.);
#274=CARTESIAN_POINT('',(-5.25,0.0,0.0));
#275=DIRECTION('',(1.0,-6.12323399573677E-017,0.0));
#276=DIRECTION('',(-6.12323399573677E-017,-1.0,0.0));
#277=SURFACE_STYLE_FILL_AREA(#360);
#278=ORIENTED_EDGE('',*,*,#341,.T.);
#279=ORIENTED_EDGE('',*,*,#361,.T.);
#280=ORIENTED_EDGE('',*,*,#343,.T.);
#281=ORIENTED_EDGE('',*,*,#359,.F.);
#282=CARTESIAN_POINT('',(-3.41125,0.0,0.0));
#283=DIRECTION('',(-1.0,6.12323399573677E-017,-0.0));
#284=DIRECTION('',(6.12323399573677E-017,1.0,0.0));
#285=SURFACE_STYLE_FILL_AREA(#362);
#286=ORIENTED_EDGE('',*,*,#337,.T.);
#287=ORIENTED_EDGE('',*,*,#361,.F.);
#288=ORIENTED_EDGE('',*,*,#338,.T.);
#289=ORIENTED_EDGE('',*,*,#363,.T.);
#290=CARTESIAN_POINT('',(-5.25,0.0,0.0));
#291=DIRECTION('',(1.0,-6.12323399573677E-017,0.0));
#292=DIRECTION('',(-6.12323399573677E-017,-1.0,0.0));
#293=SURFACE_STYLE_FILL_AREA(#364);
#294=ORIENTED_EDGE('',*,*,#333,.T.);
#295=ORIENTED_EDGE('',*,*,#363,.F.);
#296=ORIENTED_EDGE('',*,*,#334,.T.);
#297=ORIENTED_EDGE('',*,*,#365,.T.);
#298=CARTESIAN_POINT('',(-4.33961838427501,0.0,0.0));
#299=DIRECTION('',(1.0,-6.12323399573677E-017,0.0));
#300=DIRECTION('',(-6.12323399573677E-017,-1.0,0.0));
#301=SURFACE_STYLE_FILL_AREA(#366);
#302=ORIENTED_EDGE('',*,*,#328,.T.);
#303=ORIENTED_EDGE('',*,*,#365,.F.);
#304=ORIENTED_EDGE('',*,*,#330,.T.);
#305=ORIENTED_EDGE('',*,*,#326,.T.);
#306=CARTESIAN_POINT('',(-4.77781732394396,0.0,0.0));
#307=DIRECTION('',(1.0,-6.12323399573676E-017,0.0));
#308=DIRECTION('',(-6.12323399573677E-017,-1.0,0.0));
#309=SURFACE_STYLE_FILL_AREA(#367);
#310=ORIENTED_EDGE('',*,*,#324,.F.);
#311=ORIENTED_EDGE('',*,*,#329,.F.);
#312=ORIENTED_EDGE('',*,*,#325,.F.);
#313=CARTESIAN_POINT('',(-4.962690409853,0.0,0.0));
#314=DIRECTION('',(1.0,-6.12323399573677E-017,0.0));
#315=DIRECTION('',(-6.12323399573677E-017,-1.0,0.0));
#316=SURFACE_STYLE_FILL_AREA(#368);
#317=ORIENTED_EDGE('',*,*,#354,.F.);
#318=ORIENTED_EDGE('',*,*,#352,.F.);
#319=CARTESIAN_POINT('',(-3.66200000000003,0.0,0.0));
#320=DIRECTION('',(1.0,-6.12323399573677E-017,0.0));
#321=DIRECTION('',(-6.12323399573677E-017,-1.0,0.0));
#322=SURFACE_STYLE_FILL_AREA(#369);
#323=FILL_AREA_STYLE('',(#370));
#324=EDGE_CURVE('',#371,#372,#373,.T.);
#325=EDGE_CURVE('',#372,#374,#375,.T.);
#326=EDGE_CURVE('',#371,#374,#376,.T.);
#327=FILL_AREA_STYLE('',(#377));
#328=EDGE_CURVE('',#374,#378,#379,.T.);
#329=EDGE_CURVE('',#374,#371,#380,.T.);
#330=EDGE_CURVE('',#381,#371,#382,.T.);
#331=EDGE_CURVE('',#378,#381,#383,.T.);
#332=FILL_AREA_STYLE('',(#384));
#333=EDGE_CURVE('',#378,#385,#386,.T.);
#334=EDGE_CURVE('',#387,#381,#388,.T.);
#335=EDGE_CURVE('',#385,#387,#389,.T.);
#336=FILL_AREA_STYLE('',(#390));
#337=EDGE_CURVE('',#385,#391,#392,.T.);
#338=EDGE_CURVE('',#393,#387,#394,.T.);
#339=EDGE_CURVE('',#391,#393,#395,.T.);
#340=FILL_AREA_STYLE('',(#396));
#341=EDGE_CURVE('',#397,#393,#398,.T.);
#342=EDGE_CURVE('',#399,#397,#400,.T.);
#343=EDGE_CURVE('',#391,#399,#401,.T.);
#344=FILL_AREA_STYLE('',(#402));
#345=EDGE_CURVE('',#399,#403,#404,.T.);
#346=EDGE_CURVE('',#405,#397,#406,.T.);
#347=EDGE_CURVE('',#403,#405,#407,.T.);
#348=FILL_AREA_STYLE('',(#408));
#349=EDGE_CURVE('',#409,#410,#411,.T.);
#350=EDGE_CURVE('',#409,#412,#413,.T.);
#351=EDGE_CURVE('',#414,#412,#415,.T.);
#352=EDGE_CURVE('',#414,#410,#416,.T.);
#353=FILL_AREA_STYLE('',(#417));
#354=EDGE_CURVE('',#410,#414,#418,.T.);
#355=EDGE_CURVE('',#412,#409,#419,.T.);
#356=FILL_AREA_STYLE('',(#420));
#357=EDGE_CURVE('',#405,#403,#421,.T.);
#358=FILL_AREA_STYLE('',(#422));
#359=EDGE_CURVE('',#397,#399,#423,.T.);
#360=FILL_AREA_STYLE('',(#424));
#361=EDGE_CURVE('',#393,#391,#425,.T.);
#362=FILL_AREA_STYLE('',(#426));
#363=EDGE_CURVE('',#387,#385,#427,.T.);
#364=FILL_AREA_STYLE('',(#428));
#365=EDGE_CURVE('',#381,#378,#429,.T.);
#366=FILL_AREA_STYLE('',(#430));
#367=FILL_AREA_STYLE('',(#431));
#368=FILL_AREA_STYLE('',(#432));
#369=FILL_AREA_STYLE('',(#433));
#370=FILL_AREA_STYLE_COLOUR('',#434);
#371=VERTEX_POINT('',#435);
#372=VERTEX_POINT('',#436);
#373=LINE('',#437,#438);
#374=VERTEX_POINT('',#439);
#375=LINE('',#440,#441);
#376=CIRCLE('',#442,1.734883621799);
#377=FILL_AREA_STYLE_COLOUR('',#443);
#378=VERTEX_POINT('',#444);
#379=LINE('',#445,#446);
#380=CIRCLE('',#447,1.734883621799);
#381=VERTEX_POINT('',#448);
#382=LINE('',#449,#450);
#383=CIRCLE('',#451,4.004828394677);
#384=FILL_AREA_STYLE_COLOUR('',#452);
#385=VERTEX_POINT('',#453);
#386=LINE('',#454,#455);
#387=VERTEX_POINT('',#456);
#388=LINE('',#457,#458);
#389=CIRCLE('',#459,6.3225);
#390=FILL_AREA_STYLE_COLOUR('',#460);
#391=VERTEX_POINT('',#461);
#392=LINE('',#462,#463);
#393=VERTEX_POINT('',#464);
#394=LINE('',#465,#466);
#395=CIRCLE('',#467,6.3225);
#396=FILL_AREA_STYLE_COLOUR('',#468);
#397=VERTEX_POINT('',#469);
#398=LINE('',#470,#471);
#399=VERTEX_POINT('',#472);
#400=CIRCLE('',#473,5.5);
#401=LINE('',#474,#475);
#402=FILL_AREA_STYLE_COLOUR('',#476);
#403=VERTEX_POINT('',#477);
#404=LINE('',#478,#479);
#405=VERTEX_POINT('',#480);
#406=LINE('',#481,#482);
#407=CIRCLE('',#483,5.5);
#408=FILL_AREA_STYLE_COLOUR('',#484);
#409=VERTEX_POINT('',#485);
#410=VERTEX_POINT('',#486);
#411=LINE('',#487,#488);
#412=VERTEX_POINT('',#489);
#413=CIRCLE('',#490,4.7);
#414=VERTEX_POINT('',#491);
#415=LINE('',#492,#493);
#416=CIRCLE('',#494,4.7);
#417=FILL_AREA_STYLE_COLOUR('',#495);
#418=CIRCLE('',#496,4.7);
#419=CIRCLE('',#497,4.7);
#420=FILL_AREA_STYLE_COLOUR('',#498);
#421=CIRCLE('',#499,5.5);
#422=FILL_AREA_STYLE_COLOUR('',#500);
#423=CIRCLE('',#501,5.5);
#424=FILL_AREA_STYLE_COLOUR('',#502);
#425=CIRCLE('',#503,6.3225);
#426=FILL_AREA_STYLE_COLOUR('',#504);
#427=CIRCLE('',#505,6.3225);
#428=FILL_AREA_STYLE_COLOUR('',#506);
#429=CIRCLE('',#507,4.004828394677);
#430=FILL_AREA_STYLE_COLOUR('',#508);
#431=FILL_AREA_STYLE_COLOUR('',#509);
#432=FILL_AREA_STYLE_COLOUR('',#510);
#433=FILL_AREA_STYLE_COLOUR('',#511);
#434=COLOUR_RGB('',0.61176472902298,0.61176472902298,0.650980412960052);
#435=CARTESIAN_POINT('',(-4.93020477023401,1.734883621799,-2.12461967432931E-016));
#436=CARTESIAN_POINT('',(-5.0,0.0,0.0));
#437=CARTESIAN_POINT('',(-4.962690409853,0.9273957131296,-1.13573219162714E-016));
#438=VECTOR('',#512,1.0);
#439=CARTESIAN_POINT('',(-4.93020477023401,-1.73488362179899,0.0));
#440=CARTESIAN_POINT('',(-4.962690409853,-0.9273957131296,1.13573219162714E-016));
#441=VECTOR('',#513,1.0);
#442=AXIS2_PLACEMENT_3D('',#514,#515,#516);
#443=COLOUR_RGB('',0.61176472902298,0.61176472902298,0.650980412960052);
#444=CARTESIAN_POINT('',(-4.62542987765301,-4.00482839467702,0.0));
#445=CARTESIAN_POINT('',(-4.77781732394396,-2.869856008238,3.51455997450247E-016));
#446=VECTOR('',#517,1.0);
#447=AXIS2_PLACEMENT_3D('',#518,#519,#520);
#448=CARTESIAN_POINT('',(-4.62542987765301,4.004828394677,-4.90450027467562E-016));
#449=CARTESIAN_POINT('',(-4.77781732394396,2.869856008238,-3.51455997450247E-016));
#450=VECTOR('',#521,1.0);
#451=AXIS2_PLACEMENT_3D('',#522,#523,#524);
#452=COLOUR_RGB('',0.61176472902298,0.61176472902298,0.650980412960052);
#453=CARTESIAN_POINT('',(-4.053806890896,-6.32249999999999,0.0));
#454=CARTESIAN_POINT('',(-4.33961838427501,-5.163664197339,6.32366483114299E-016));
#455=VECTOR('',#525,1.0);
#456=CARTESIAN_POINT('',(-4.053806890896,6.3225,-7.74282938760914E-016));
#457=CARTESIAN_POINT('',(-4.33961838427501,5.163664197339,-6.32366483114299E-016));
#458=VECTOR('',#526,1.0);
#459=AXIS2_PLACEMENT_3D('',#527,#528,#529);
#460=COLOUR_RGB('',0.61176472902298,0.61176472902298,0.650980412960052);
#461=CARTESIAN_POINT('',(-3.82249999999999,-6.32249999999999,0.0));
#462=CARTESIAN_POINT('',(-3.938153445448,-6.3225,7.74282938760914E-016));
#463=VECTOR('',#530,1.0);
#464=CARTESIAN_POINT('',(-3.82249999999999,6.3225,7.74282938760914E-016));
#465=CARTESIAN_POINT('',(-3.93815344544799,6.3225,-7.74282938760914E-016));
#466=VECTOR('',#531,1.0);
#467=AXIS2_PLACEMENT_3D('',#532,#533,#534);
#468=COLOUR_RGB('',0.61176472902298,0.61176472902298,0.650980412960052);
#469=CARTESIAN_POINT('',(-3.0,5.5,-6.73555739531044E-016));
#470=CARTESIAN_POINT('',(-3.41125,5.91125,7.23919339145979E-016));
#471=VECTOR('',#535,1.0);
#472=CARTESIAN_POINT('',(-3.0,-5.5,0.0));
#473=AXIS2_PLACEMENT_3D('',#536,#537,#538);
#474=CARTESIAN_POINT('',(-3.41125,-5.91125,-7.23919339145979E-016));
#475=VECTOR('',#539,1.0);
#476=COLOUR_RGB('',0.61176472902298,0.61176472902298,0.650980412960052);
#477=CARTESIAN_POINT('',(0.0,-5.5,0.0));
#478=CARTESIAN_POINT('',(-1.5,-5.5,6.73555739531044E-016));
#479=VECTOR('',#540,1.0);
#480=CARTESIAN_POINT('',(3.36777869765522E-016,5.5,-6.73555739531044E-016));
#481=CARTESIAN_POINT('',(-1.5,5.5,-6.73555739531044E-016));
#482=VECTOR('',#541,1.0);
#483=AXIS2_PLACEMENT_3D('',#542,#543,#544);
#484=COLOUR_RGB('',0.61176472902298,0.61176472902298,0.650980412960052);
#485=CARTESIAN_POINT('',(0.0,-4.70000000000005,0.0));
#486=CARTESIAN_POINT('',(-3.66200000000003,-4.70000000000005,0.0));
#487=CARTESIAN_POINT('',(-1.83100000000002,-4.7,5.75583995599256E-016));
#488=VECTOR('',#545,1.0);
#489=CARTESIAN_POINT('',(2.87791997799629E-016,4.7,-5.75583995599256E-016));
#490=AXIS2_PLACEMENT_3D('',#546,#547,#548);
#491=CARTESIAN_POINT('',(-3.66200000000003,4.7,-5.75583995599256E-016));
#492=CARTESIAN_POINT('',(-1.83100000000002,4.7,-5.75583995599256E-016));
#493=VECTOR('',#549,1.0);
#494=AXIS2_PLACEMENT_3D('',#550,#551,#552);
#495=COLOUR_RGB('',0.61176472902298,0.61176472902298,0.650980412960052);
#496=AXIS2_PLACEMENT_3D('',#553,#554,#555);
#497=AXIS2_PLACEMENT_3D('',#556,#557,#558);
#498=COLOUR_RGB('',0.61176472902298,0.61176472902298,0.650980412960052);
#499=AXIS2_PLACEMENT_3D('',#559,#560,#561);
#500=COLOUR_RGB('',0.61176472902298,0.61176472902298,0.650980412960052);
#501=AXIS2_PLACEMENT_3D('',#562,#563,#564);
#502=COLOUR_RGB('',0.61176472902298,0.61176472902298,0.650980412960052);
#503=AXIS2_PLACEMENT_3D('',#565,#566,#567);
#504=COLOUR_RGB('',0.61176472902298,0.61176472902298,0.650980412960052);
#505=AXIS2_PLACEMENT_3D('',#568,#569,#570);
#506=COLOUR_RGB('',0.61176472902298,0.61176472902298,0.650980412960052);
#507=AXIS2_PLACEMENT_3D('',#571,#572,#573);
#508=COLOUR_RGB('',0.61176472902298,0.61176472902298,0.650980412960052);
#509=COLOUR_RGB('',0.61176472902298,0.61176472902298,0.650980412960052);
#510=COLOUR_RGB('',0.61176472902298,0.61176472902298,0.650980412960052);
#511=COLOUR_RGB('',0.61176472902298,0.61176472902298,0.650980412960052);
#512=DIRECTION('',(-0.040197979747988,-0.999191734565584,1.22365695947023E-016));
#513=DIRECTION('',(0.040197979747988,-0.999191734565584,1.22365695947023E-016));
#514=CARTESIAN_POINT('',(-4.93020477023401,0.0,0.0));
#515=DIRECTION('',(1.0,-6.12323399573677E-017,0.0));
#516=DIRECTION('',(6.12323399573677E-017,1.0,0.0));
#517=DIRECTION('',(0.133071241662371,-0.991106474927106,1.2137553721337E-016));
#518=CARTESIAN_POINT('',(-4.93020477023401,0.0,0.0));
#519=DIRECTION('',(1.0,-6.12323399573677E-017,0.0));
#520=DIRECTION('',(6.12323399573677E-017,1.0,0.0));
#521=DIRECTION('',(-0.133071241662371,-0.991106474927106,1.2137553721337E-016));
#522=CARTESIAN_POINT('',(-4.62542987765301,0.0,0.0));
#523=DIRECTION('',(1.0,-6.12323399573677E-017,0.0));
#524=DIRECTION('',(6.12323399573677E-017,1.0,0.0));
#525=DIRECTION('',(0.239461088693747,-0.970905961976548,1.18901687860766E-016));
#526=DIRECTION('',(-0.239461088693747,-0.970905961976548,1.18901687860766E-016));
#527=CARTESIAN_POINT('',(-4.053806890896,0.0,0.0));
#528=DIRECTION('',(1.0,-6.12323399573677E-017,0.0));
#529=DIRECTION('',(6.12323399573677E-017,1.0,0.0));
#530=DIRECTION('',(1.0,-6.12323399573677E-017,0.0));
#531=DIRECTION('',(-1.0,6.12323399573677E-017,-0.0));
#532=CARTESIAN_POINT('',(-3.82249999999999,0.0,0.0));
#533=DIRECTION('',(1.0,-6.12323399573677E-017,0.0));
#534=DIRECTION('',(6.12323399573677E-017,1.0,0.0));
#535=DIRECTION('',(-0.707106781186548,0.707106781186547,8.65956056235493E-017));
#536=CARTESIAN_POINT('',(-3.0,0.0,0.0));
#537=DIRECTION('',(1.0,-6.12323399573677E-017,0.0));
#538=DIRECTION('',(6.12323399573677E-017,1.0,0.0));
#539=DIRECTION('',(0.707106781186548,0.707106781186547,8.65956056235493E-017));
#540=DIRECTION('',(1.0,-6.12323399573677E-017,0.0));
#541=DIRECTION('',(-1.0,6.12323399573677E-017,-0.0));
#542=CARTESIAN_POINT('',(0.0,0.0,0.0));
#543=DIRECTION('',(1.0,-6.12323399573677E-017,0.0));
#544=DIRECTION('',(6.12323399573677E-017,1.0,0.0));
#545=DIRECTION('',(-1.0,6.12323399573677E-017,-0.0));
#546=CARTESIAN_POINT('',(0.0,0.0,0.0));
#547=DIRECTION('',(1.0,-6.12323399573677E-017,0.0));
#548=DIRECTION('',(6.12323399573677E-017,1.0,0.0));
#549=DIRECTION('',(1.0,-6.12323399573677E-017,-0.0));
#550=CARTESIAN_POINT('',(-3.66200000000003,0.0,0.0));
#551=DIRECTION('',(-1.0,6.12323399573677E-017,0.0));
#552=DIRECTION('',(6.12323399573677E-017,1.0,0.0));
#553=CARTESIAN_POINT('',(-3.66200000000003,0.0,0.0));
#554=DIRECTION('',(-1.0,6.12323399573677E-017,0.0));
#555=DIRECTION('',(6.12323399573677E-017,1.0,0.0));
#556=CARTESIAN_POINT('',(0.0,0.0,0.0));
#557=DIRECTION('',(1.0,-6.12323399573677E-017,0.0));
#558=DIRECTION('',(6.12323399573677E-017,1.0,0.0));
#559=CARTESIAN_POINT('',(0.0,0.0,0.0));
#560=DIRECTION('',(1.0,-6.12323399573677E-017,0.0));
#561=DIRECTION('',(6.12323399573677E-017,1.0,0.0));
#562=CARTESIAN_POINT('',(-3.0,0.0,0.0));
#563=DIRECTION('',(1.0,-6.12323399573677E-017,0.0));
#564=DIRECTION('',(6.12323399573677E-017,1.0,0.0));
#565=CARTESIAN_POINT('',(-3.82249999999999,0.0,0.0));
#566=DIRECTION('',(1.0,-6.12323399573677E-017,0.0));
#567=DIRECTION('',(6.12323399573677E-017,1.0,0.0));
#568=CARTESIAN_POINT('',(-4.053806890896,0.0,0.0));
#569=DIRECTION('',(1.0,-6.12323399573677E-017,0.0));
#570=DIRECTION('',(6.12323399573677E-017,1.0,0.0));
#571=CARTESIAN_POINT('',(-4.62542987765301,0.0,0.0));
#572=DIRECTION('',(1.0,-6.12323399573677E-017,0.0));
#573=DIRECTION('',(6.12323399573677E-017,1.0,0.0));
ENDSEC;
END-ISO-10303-21;
