ISO-10303-21;
HEADER;
FILE_DESCRIPTION(('STEP AP214'),'1');
FILE_NAME('cctmp_466BB0BD-DDC5-4A5B-9CD0-49DF8493AD26_2020_8_19_9_5_21_180..stp','2020-08-19T07:05:21',('Bosch Rexroth AG'),('CADClick - www.CADClick.com'),'Spatial InterOp 3D',' ','unknown authorization - (Healing Option Enabled)');
FILE_SCHEMA(('AUTOMOTIVE_DESIGN'));
ENDSEC;
DATA;
#1=MECHANICAL_DESIGN_GEOMETRIC_PRESENTATION_REPRESENTATION(' ',(#10,#11,#12,#13,#14,#15,#16,#17,#18,#19,#20,#21),#6);
#2=PRODUCT_DEFINITION_CONTEXT('',#22,'design');
#3=APPLICATION_PROTOCOL_DEFINITION('INTERNATIONAL STANDARD','automotive_design',1994,#22);
#4=PRODUCT_CATEGORY_RELATIONSHIP('NONE','NONE',#23,#24);
#5=SHAPE_DEFINITION_REPRESENTATION(#25,#26);
#6= (GEOMETRIC_REPRESENTATION_CONTEXT(3)GLOBAL_UNCERTAINTY_ASSIGNED_CONTEXT((#29))GLOBAL_UNIT_ASSIGNED_CONTEXT((#31,#32,#33))REPRESENTATION_CONTEXT('NONE','WORKSPACE'));
#10=STYLED_ITEM('',(#35),#36);
#11=STYLED_ITEM('',(#37),#38);
#12=STYLED_ITEM('',(#39),#40);
#13=STYLED_ITEM('',(#41),#42);
#14=STYLED_ITEM('',(#43),#44);
#15=STYLED_ITEM('',(#45),#46);
#16=STYLED_ITEM('',(#47),#48);
#17=STYLED_ITEM('',(#49),#50);
#18=STYLED_ITEM('',(#51),#52);
#19=STYLED_ITEM('',(#53),#54);
#20=STYLED_ITEM('',(#55),#56);
#21=STYLED_ITEM('',(#57),#58);
#22=APPLICATION_CONTEXT(' ');
#23=PRODUCT_CATEGORY('part','NONE');
#24=PRODUCT_RELATED_PRODUCT_CATEGORY('detail',' ',(#59));
#25=PRODUCT_DEFINITION_SHAPE('NONE','NONE',#60);
#26=ADVANCED_BREP_SHAPE_REPRESENTATION('2020_08_19__09-05-21-180',(#58,#61),#6);
#29=UNCERTAINTY_MEASURE_WITH_UNIT(LENGTH_MEASURE(1.0E-006),#31,'','');
#31= (CONVERSION_BASED_UNIT('MILLIMETRE',#64)LENGTH_UNIT()NAMED_UNIT(#67));
#32= (NAMED_UNIT(#69)PLANE_ANGLE_UNIT()SI_UNIT($,.RADIAN.));
#33= (NAMED_UNIT(#69)SOLID_ANGLE_UNIT()SI_UNIT($,.STERADIAN.));
#35=PRESENTATION_STYLE_ASSIGNMENT((#75));
#36=ADVANCED_FACE('',(#76),#77,.F.);
#37=PRESENTATION_STYLE_ASSIGNMENT((#78));
#38=ADVANCED_FACE('',(#79),#80,.T.);
#39=PRESENTATION_STYLE_ASSIGNMENT((#81));
#40=ADVANCED_FACE('',(#82),#83,.T.);
#41=PRESENTATION_STYLE_ASSIGNMENT((#84));
#42=ADVANCED_FACE('',(#85),#86,.T.);
#43=PRESENTATION_STYLE_ASSIGNMENT((#87));
#44=ADVANCED_FACE('',(#88),#89,.T.);
#45=PRESENTATION_STYLE_ASSIGNMENT((#90));
#46=ADVANCED_FACE('',(#91),#92,.T.);
#47=PRESENTATION_STYLE_ASSIGNMENT((#93));
#48=ADVANCED_FACE('',(#94),#95,.F.);
#49=PRESENTATION_STYLE_ASSIGNMENT((#96));
#50=ADVANCED_FACE('',(#97),#98,.F.);
#51=PRESENTATION_STYLE_ASSIGNMENT((#99));
#52=ADVANCED_FACE('',(#100),#101,.T.);
#53=PRESENTATION_STYLE_ASSIGNMENT((#102));
#54=ADVANCED_FACE('',(#103),#104,.T.);
#55=PRESENTATION_STYLE_ASSIGNMENT((#105));
#56=ADVANCED_FACE('',(#106),#107,.F.);
#57=PRESENTATION_STYLE_ASSIGNMENT((#108));
#58=MANIFOLD_SOLID_BREP('2020_08_19__09-05-21-180',#109);
#59=PRODUCT('2020_08_19__09-05-21-180','','PART--DESC',(#110));
#60=PRODUCT_DEFINITION('','NONE',#111,#2);
#61=AXIS2_PLACEMENT_3D('',#112,#113,#114);
#64=LENGTH_MEASURE_WITH_UNIT(LENGTH_MEASURE(1.0),#115);
#67=DIMENSIONAL_EXPONENTS(1.0,0.0,0.0,0.0,0.0,0.0,0.0);
#69=DIMENSIONAL_EXPONENTS(0.0,0.0,0.0,0.0,0.0,0.0,0.0);
#75=SURFACE_STYLE_USAGE(.BOTH.,#116);
#76=FACE_OUTER_BOUND('',#117,.T.);
#77=CYLINDRICAL_SURFACE('',#118,6.5);
#78=SURFACE_STYLE_USAGE(.BOTH.,#119);
#79=FACE_OUTER_BOUND('',#120,.T.);
#80=PLANE('',#121);
#81=SURFACE_STYLE_USAGE(.BOTH.,#122);
#82=FACE_OUTER_BOUND('',#123,.T.);
#83=CYLINDRICAL_SURFACE('',#124,90.0);
#84=SURFACE_STYLE_USAGE(.BOTH.,#125);
#85=FACE_OUTER_BOUND('',#126,.T.);
#86=PLANE('',#127);
#87=SURFACE_STYLE_USAGE(.BOTH.,#128);
#88=FACE_OUTER_BOUND('',#129,.T.);
#89=PLANE('',#130);
#90=SURFACE_STYLE_USAGE(.BOTH.,#131);
#91=FACE_OUTER_BOUND('',#132,.T.);
#92=PLANE('',#133);
#93=SURFACE_STYLE_USAGE(.BOTH.,#134);
#94=FACE_OUTER_BOUND('',#135,.T.);
#95=CYLINDRICAL_SURFACE('',#136,6.5);
#96=SURFACE_STYLE_USAGE(.BOTH.,#137);
#97=FACE_OUTER_BOUND('',#138,.T.);
#98=PLANE('',#139);
#99=SURFACE_STYLE_USAGE(.BOTH.,#140);
#100=FACE_OUTER_BOUND('',#141,.T.);
#101=PLANE('',#142);
#102=SURFACE_STYLE_USAGE(.BOTH.,#143);
#103=FACE_OUTER_BOUND('',#144,.T.);
#104=PLANE('',#145);
#105=SURFACE_STYLE_USAGE(.BOTH.,#146);
#106=FACE_OUTER_BOUND('',#147,.T.);
#107=PLANE('',#148);
#108=SURFACE_STYLE_USAGE(.BOTH.,#149);
#109=CLOSED_SHELL('',(#36,#38,#40,#42,#44,#46,#48,#50,#52,#54,#56));
#110=PRODUCT_CONTEXT('',#22,'mechanical');
#111=PRODUCT_DEFINITION_FORMATION_WITH_SPECIFIED_SOURCE(' ','NONE',#59,.NOT_KNOWN.);
#112=CARTESIAN_POINT('',(0.0,0.0,0.0));
#113=DIRECTION('',(0.0,0.0,1.0));
#114=DIRECTION('',(1.0,0.0,0.0));
#115= (NAMED_UNIT(#67)LENGTH_UNIT()SI_UNIT(.MILLI.,.METRE.));
#116=SURFACE_SIDE_STYLE('',(#151));
#117=EDGE_LOOP('',(#152,#153,#154,#155));
#118=AXIS2_PLACEMENT_3D('',#156,#157,#158);
#119=SURFACE_SIDE_STYLE('',(#159));
#120=EDGE_LOOP('',(#160,#161,#162,#163,#164,#165,#166,#167,#168));
#121=AXIS2_PLACEMENT_3D('',#169,#170,#171);
#122=SURFACE_SIDE_STYLE('',(#172));
#123=EDGE_LOOP('',(#173,#174,#175,#176));
#124=AXIS2_PLACEMENT_3D('',#177,#178,#179);
#125=SURFACE_SIDE_STYLE('',(#180));
#126=EDGE_LOOP('',(#181,#182,#183,#184));
#127=AXIS2_PLACEMENT_3D('',#185,#186,#187);
#128=SURFACE_SIDE_STYLE('',(#188));
#129=EDGE_LOOP('',(#189,#190,#191,#192));
#130=AXIS2_PLACEMENT_3D('',#193,#194,#195);
#131=SURFACE_SIDE_STYLE('',(#196));
#132=EDGE_LOOP('',(#197,#198,#199,#200));
#133=AXIS2_PLACEMENT_3D('',#201,#202,#203);
#134=SURFACE_SIDE_STYLE('',(#204));
#135=EDGE_LOOP('',(#205,#206,#207,#208));
#136=AXIS2_PLACEMENT_3D('',#209,#210,#211);
#137=SURFACE_SIDE_STYLE('',(#212));
#138=EDGE_LOOP('',(#213,#214,#215,#216));
#139=AXIS2_PLACEMENT_3D('',#217,#218,#219);
#140=SURFACE_SIDE_STYLE('',(#220));
#141=EDGE_LOOP('',(#221,#222,#223,#224));
#142=AXIS2_PLACEMENT_3D('',#225,#226,#227);
#143=SURFACE_SIDE_STYLE('',(#228));
#144=EDGE_LOOP('',(#229,#230,#231,#232));
#145=AXIS2_PLACEMENT_3D('',#233,#234,#235);
#146=SURFACE_SIDE_STYLE('',(#236));
#147=EDGE_LOOP('',(#237,#238,#239,#240,#241,#242,#243,#244,#245));
#148=AXIS2_PLACEMENT_3D('',#246,#247,#248);
#149=SURFACE_SIDE_STYLE('',(#249));
#151=SURFACE_STYLE_FILL_AREA(#250);
#152=ORIENTED_EDGE('',*,*,#251,.F.);
#153=ORIENTED_EDGE('',*,*,#252,.F.);
#154=ORIENTED_EDGE('',*,*,#253,.F.);
#155=ORIENTED_EDGE('',*,*,#254,.T.);
#156=CARTESIAN_POINT('',(0.0,0.0,-0.5));
#157=DIRECTION('',(0.0,-0.0,-1.0));
#158=DIRECTION('',(0.84615384615383,-0.532938710021219,0.0));
#159=SURFACE_STYLE_FILL_AREA(#255);
#160=ORIENTED_EDGE('',*,*,#256,.T.);
#161=ORIENTED_EDGE('',*,*,#257,.T.);
#162=ORIENTED_EDGE('',*,*,#258,.T.);
#163=ORIENTED_EDGE('',*,*,#259,.T.);
#164=ORIENTED_EDGE('',*,*,#260,.F.);
#165=ORIENTED_EDGE('',*,*,#254,.F.);
#166=ORIENTED_EDGE('',*,*,#261,.F.);
#167=ORIENTED_EDGE('',*,*,#262,.T.);
#168=ORIENTED_EDGE('',*,*,#263,.T.);
#169=CARTESIAN_POINT('',(0.0,0.0,0.0));
#170=DIRECTION('',(0.0,0.0,1.0));
#171=DIRECTION('',(1.0,-0.0,0.0));
#172=SURFACE_STYLE_FILL_AREA(#264);
#173=ORIENTED_EDGE('',*,*,#256,.F.);
#174=ORIENTED_EDGE('',*,*,#265,.T.);
#175=ORIENTED_EDGE('',*,*,#266,.T.);
#176=ORIENTED_EDGE('',*,*,#267,.F.);
#177=CARTESIAN_POINT('',(0.0,-75.0,-0.5));
#178=DIRECTION('',(0.0,0.0,-1.0));
#179=DIRECTION('',(0.166666666666694,0.986013297183265,0.0));
#180=SURFACE_STYLE_FILL_AREA(#268);
#181=ORIENTED_EDGE('',*,*,#267,.T.);
#182=ORIENTED_EDGE('',*,*,#269,.T.);
#183=ORIENTED_EDGE('',*,*,#270,.F.);
#184=ORIENTED_EDGE('',*,*,#257,.F.);
#185=CARTESIAN_POINT('',(-15.0,1.0,-0.5));
#186=DIRECTION('',(-1.0,0.0,0.0));
#187=DIRECTION('',(0.0,0.0,1.0));
#188=SURFACE_STYLE_FILL_AREA(#271);
#189=ORIENTED_EDGE('',*,*,#272,.F.);
#190=ORIENTED_EDGE('',*,*,#258,.F.);
#191=ORIENTED_EDGE('',*,*,#270,.T.);
#192=ORIENTED_EDGE('',*,*,#273,.T.);
#193=CARTESIAN_POINT('',(0.0,-13.0,-0.5));
#194=DIRECTION('',(0.0,-1.0,0.0));
#195=DIRECTION('',(0.0,0.0,-1.0));
#196=SURFACE_STYLE_FILL_AREA(#274);
#197=ORIENTED_EDGE('',*,*,#259,.F.);
#198=ORIENTED_EDGE('',*,*,#272,.T.);
#199=ORIENTED_EDGE('',*,*,#275,.T.);
#200=ORIENTED_EDGE('',*,*,#276,.F.);
#201=CARTESIAN_POINT('',(-5.5,-8.232050807569,-0.5));
#202=DIRECTION('',(1.0,0.0,0.0));
#203=DIRECTION('',(0.0,1.0,-0.0));
#204=SURFACE_STYLE_FILL_AREA(#277);
#205=ORIENTED_EDGE('',*,*,#251,.T.);
#206=ORIENTED_EDGE('',*,*,#260,.T.);
#207=ORIENTED_EDGE('',*,*,#276,.T.);
#208=ORIENTED_EDGE('',*,*,#278,.F.);
#209=CARTESIAN_POINT('',(0.0,0.0,-0.5));
#210=DIRECTION('',(0.0,-0.0,-1.0));
#211=DIRECTION('',(0.84615384615383,-0.532938710021219,0.0));
#212=SURFACE_STYLE_FILL_AREA(#279);
#213=ORIENTED_EDGE('',*,*,#261,.T.);
#214=ORIENTED_EDGE('',*,*,#253,.T.);
#215=ORIENTED_EDGE('',*,*,#280,.F.);
#216=ORIENTED_EDGE('',*,*,#281,.F.);
#217=CARTESIAN_POINT('',(5.5,-8.232050807569,-0.5));
#218=DIRECTION('',(1.0,0.0,0.0));
#219=DIRECTION('',(0.0,1.0,-0.0));
#220=SURFACE_STYLE_FILL_AREA(#282);
#221=ORIENTED_EDGE('',*,*,#281,.T.);
#222=ORIENTED_EDGE('',*,*,#283,.T.);
#223=ORIENTED_EDGE('',*,*,#284,.F.);
#224=ORIENTED_EDGE('',*,*,#262,.F.);
#225=CARTESIAN_POINT('',(0.0,-13.0,-0.5));
#226=DIRECTION('',(0.0,-1.0,0.0));
#227=DIRECTION('',(0.0,0.0,-1.0));
#228=SURFACE_STYLE_FILL_AREA(#285);
#229=ORIENTED_EDGE('',*,*,#265,.F.);
#230=ORIENTED_EDGE('',*,*,#263,.F.);
#231=ORIENTED_EDGE('',*,*,#284,.T.);
#232=ORIENTED_EDGE('',*,*,#286,.T.);
#233=CARTESIAN_POINT('',(15.0,1.0,-0.5));
#234=DIRECTION('',(1.0,0.0,0.0));
#235=DIRECTION('',(0.0,1.0,-0.0));
#236=SURFACE_STYLE_FILL_AREA(#287);
#237=ORIENTED_EDGE('',*,*,#266,.F.);
#238=ORIENTED_EDGE('',*,*,#286,.F.);
#239=ORIENTED_EDGE('',*,*,#283,.F.);
#240=ORIENTED_EDGE('',*,*,#280,.T.);
#241=ORIENTED_EDGE('',*,*,#252,.T.);
#242=ORIENTED_EDGE('',*,*,#278,.T.);
#243=ORIENTED_EDGE('',*,*,#275,.F.);
#244=ORIENTED_EDGE('',*,*,#273,.F.);
#245=ORIENTED_EDGE('',*,*,#269,.F.);
#246=CARTESIAN_POINT('',(0.0,0.0,-1.0));
#247=DIRECTION('',(0.0,0.0,1.0));
#248=DIRECTION('',(1.0,-0.0,0.0));
#249=SURFACE_STYLE_FILL_AREA(#288);
#250=FILL_AREA_STYLE('',(#289));
#251=EDGE_CURVE('',#290,#291,#292,.T.);
#252=EDGE_CURVE('',#293,#290,#294,.T.);
#253=EDGE_CURVE('',#295,#293,#296,.T.);
#254=EDGE_CURVE('',#295,#291,#297,.T.);
#255=FILL_AREA_STYLE('',(#298));
#256=EDGE_CURVE('',#299,#300,#301,.T.);
#257=EDGE_CURVE('',#300,#302,#303,.T.);
#258=EDGE_CURVE('',#302,#304,#305,.T.);
#259=EDGE_CURVE('',#304,#306,#307,.T.);
#260=EDGE_CURVE('',#291,#306,#308,.T.);
#261=EDGE_CURVE('',#309,#295,#310,.T.);
#262=EDGE_CURVE('',#309,#311,#312,.T.);
#263=EDGE_CURVE('',#311,#299,#313,.T.);
#264=FILL_AREA_STYLE('',(#314));
#265=EDGE_CURVE('',#299,#315,#316,.T.);
#266=EDGE_CURVE('',#315,#317,#318,.T.);
#267=EDGE_CURVE('',#300,#317,#319,.T.);
#268=FILL_AREA_STYLE('',(#320));
#269=EDGE_CURVE('',#317,#321,#322,.T.);
#270=EDGE_CURVE('',#302,#321,#323,.T.);
#271=FILL_AREA_STYLE('',(#324));
#272=EDGE_CURVE('',#304,#325,#326,.T.);
#273=EDGE_CURVE('',#321,#325,#327,.T.);
#274=FILL_AREA_STYLE('',(#328));
#275=EDGE_CURVE('',#325,#329,#330,.T.);
#276=EDGE_CURVE('',#306,#329,#331,.T.);
#277=FILL_AREA_STYLE('',(#332));
#278=EDGE_CURVE('',#290,#329,#333,.T.);
#279=FILL_AREA_STYLE('',(#334));
#280=EDGE_CURVE('',#335,#293,#336,.T.);
#281=EDGE_CURVE('',#309,#335,#337,.T.);
#282=FILL_AREA_STYLE('',(#338));
#283=EDGE_CURVE('',#335,#339,#340,.T.);
#284=EDGE_CURVE('',#311,#339,#341,.T.);
#285=FILL_AREA_STYLE('',(#342));
#286=EDGE_CURVE('',#339,#315,#343,.T.);
#287=FILL_AREA_STYLE('',(#344));
#288=FILL_AREA_STYLE('',(#345));
#289=FILL_AREA_STYLE_COLOUR('',#346);
#290=VERTEX_POINT('',#347);
#291=VERTEX_POINT('',#348);
#292=LINE('',#349,#350);
#293=VERTEX_POINT('',#351);
#294=CIRCLE('',#352,6.5);
#295=VERTEX_POINT('',#353);
#296=LINE('',#354,#355);
#297=CIRCLE('',#356,6.5);
#298=FILL_AREA_STYLE_COLOUR('',#357);
#299=VERTEX_POINT('',#358);
#300=VERTEX_POINT('',#359);
#301=CIRCLE('',#360,90.0);
#302=VERTEX_POINT('',#361);
#303=LINE('',#362,#363);
#304=VERTEX_POINT('',#364);
#305=LINE('',#365,#366);
#306=VERTEX_POINT('',#367);
#307=LINE('',#368,#369);
#308=CIRCLE('',#370,6.5);
#309=VERTEX_POINT('',#371);
#310=LINE('',#372,#373);
#311=VERTEX_POINT('',#374);
#312=LINE('',#375,#376);
#313=LINE('',#377,#378);
#314=FILL_AREA_STYLE_COLOUR('',#379);
#315=VERTEX_POINT('',#380);
#316=LINE('',#381,#382);
#317=VERTEX_POINT('',#383);
#318=CIRCLE('',#384,90.0);
#319=LINE('',#385,#386);
#320=FILL_AREA_STYLE_COLOUR('',#387);
#321=VERTEX_POINT('',#388);
#322=LINE('',#389,#390);
#323=LINE('',#391,#392);
#324=FILL_AREA_STYLE_COLOUR('',#393);
#325=VERTEX_POINT('',#394);
#326=LINE('',#395,#396);
#327=LINE('',#397,#398);
#328=FILL_AREA_STYLE_COLOUR('',#399);
#329=VERTEX_POINT('',#400);
#330=LINE('',#401,#402);
#331=LINE('',#403,#404);
#332=FILL_AREA_STYLE_COLOUR('',#405);
#333=CIRCLE('',#406,6.5);
#334=FILL_AREA_STYLE_COLOUR('',#407);
#335=VERTEX_POINT('',#408);
#336=LINE('',#409,#410);
#337=LINE('',#411,#412);
#338=FILL_AREA_STYLE_COLOUR('',#413);
#339=VERTEX_POINT('',#414);
#340=LINE('',#415,#416);
#341=LINE('',#417,#418);
#342=FILL_AREA_STYLE_COLOUR('',#419);
#343=LINE('',#420,#421);
#344=FILL_AREA_STYLE_COLOUR('',#422);
#345=FILL_AREA_STYLE_COLOUR('',#423);
#346=COLOUR_RGB('',0.749019622802734,0.749019622802734,0.749019622802734);
#347=CARTESIAN_POINT('',(-5.49999999999989,3.46410161513792,-1.0));
#348=CARTESIAN_POINT('',(-5.49999999999989,3.46410161513792,0.0));
#349=CARTESIAN_POINT('',(-5.49999999999989,3.46410161513792,-0.5));
#350=VECTOR('',#424,1.0);
#351=CARTESIAN_POINT('',(5.5,-3.464101615138,-1.0));
#352=AXIS2_PLACEMENT_3D('',#425,#426,#427);
#353=CARTESIAN_POINT('',(5.5,-3.464101615138,0.0));
#354=CARTESIAN_POINT('',(5.5,-3.464101615138,0.0));
#355=VECTOR('',#428,1.0);
#356=AXIS2_PLACEMENT_3D('',#429,#430,#431);
#357=COLOUR_RGB('',0.749019622802734,0.749019622802734,0.749019622802734);
#358=CARTESIAN_POINT('',(15.0,13.74119674649,0.0));
#359=CARTESIAN_POINT('',(-15.0,13.74119674649,0.0));
#360=AXIS2_PLACEMENT_3D('',#432,#433,#434);
#361=CARTESIAN_POINT('',(-15.0,-13.0,0.0));
#362=CARTESIAN_POINT('',(-15.0,13.74119674649,0.0));
#363=VECTOR('',#435,26.74119674649);
#364=CARTESIAN_POINT('',(-5.5,-13.0,0.0));
#365=CARTESIAN_POINT('',(-15.0,-13.0,0.0));
#366=VECTOR('',#436,9.5);
#367=CARTESIAN_POINT('',(-5.5,-3.464101615138,0.0));
#368=CARTESIAN_POINT('',(-5.5,-13.0,0.0));
#369=VECTOR('',#437,9.535898384862);
#370=AXIS2_PLACEMENT_3D('',#438,#439,#440);
#371=CARTESIAN_POINT('',(5.5,-13.0,0.0));
#372=CARTESIAN_POINT('',(5.5,-13.0,0.0));
#373=VECTOR('',#441,9.535898384862);
#374=CARTESIAN_POINT('',(15.0,-13.0,0.0));
#375=CARTESIAN_POINT('',(5.5,-13.0,0.0));
#376=VECTOR('',#442,9.5);
#377=CARTESIAN_POINT('',(15.0,-13.0,0.0));
#378=VECTOR('',#443,26.74119674649);
#379=COLOUR_RGB('',0.749019622802734,0.749019622802734,0.749019622802734);
#380=CARTESIAN_POINT('',(15.0,13.74119674649,-1.0));
#381=CARTESIAN_POINT('',(15.0,13.74119674649,0.0));
#382=VECTOR('',#444,1.0);
#383=CARTESIAN_POINT('',(-15.0,13.74119674649,-1.0));
#384=AXIS2_PLACEMENT_3D('',#445,#446,#447);
#385=CARTESIAN_POINT('',(-15.0,13.74119674649,0.0));
#386=VECTOR('',#448,1.0);
#387=COLOUR_RGB('',0.749019622802734,0.749019622802734,0.749019622802734);
#388=CARTESIAN_POINT('',(-15.0,-13.0,-1.0));
#389=CARTESIAN_POINT('',(-15.0,13.74119674649,-1.0));
#390=VECTOR('',#449,26.74119674649);
#391=CARTESIAN_POINT('',(-15.0,-13.0,0.0));
#392=VECTOR('',#450,1.0);
#393=COLOUR_RGB('',0.749019622802734,0.749019622802734,0.749019622802734);
#394=CARTESIAN_POINT('',(-5.5,-13.0,-1.0));
#395=CARTESIAN_POINT('',(-5.5,-13.0,0.0));
#396=VECTOR('',#451,1.0);
#397=CARTESIAN_POINT('',(-15.0,-13.0,-1.0));
#398=VECTOR('',#452,9.5);
#399=COLOUR_RGB('',0.749019622802734,0.749019622802734,0.749019622802734);
#400=CARTESIAN_POINT('',(-5.5,-3.464101615138,-1.0));
#401=CARTESIAN_POINT('',(-5.5,-13.0,-1.0));
#402=VECTOR('',#453,9.535898384862);
#403=CARTESIAN_POINT('',(-5.5,-3.464101615138,0.0));
#404=VECTOR('',#454,1.0);
#405=COLOUR_RGB('',0.749019622802734,0.749019622802734,0.749019622802734);
#406=AXIS2_PLACEMENT_3D('',#455,#456,#457);
#407=COLOUR_RGB('',0.749019622802734,0.749019622802734,0.749019622802734);
#408=CARTESIAN_POINT('',(5.5,-13.0,-1.0));
#409=CARTESIAN_POINT('',(5.5,-13.0,-1.0));
#410=VECTOR('',#458,9.535898384862);
#411=CARTESIAN_POINT('',(5.5,-13.0,0.0));
#412=VECTOR('',#459,1.0);
#413=COLOUR_RGB('',0.749019622802734,0.749019622802734,0.749019622802734);
#414=CARTESIAN_POINT('',(15.0,-13.0,-1.0));
#415=CARTESIAN_POINT('',(5.5,-13.0,-1.0));
#416=VECTOR('',#460,9.5);
#417=CARTESIAN_POINT('',(15.0,-13.0,0.0));
#418=VECTOR('',#461,1.0);
#419=COLOUR_RGB('',0.749019622802734,0.749019622802734,0.749019622802734);
#420=CARTESIAN_POINT('',(15.0,-13.0,-1.0));
#421=VECTOR('',#462,26.74119674649);
#422=COLOUR_RGB('',0.749019622802734,0.749019622802734,0.749019622802734);
#423=COLOUR_RGB('',0.749019622802734,0.749019622802734,0.749019622802734);
#424=DIRECTION('',(-0.0,0.0,1.0));
#425=CARTESIAN_POINT('',(0.0,0.0,-1.0));
#426=DIRECTION('',(0.0,0.0,1.0));
#427=DIRECTION('',(0.84615384615383,-0.532938710021219,0.0));
#428=DIRECTION('',(0.0,0.0,-1.0));
#429=CARTESIAN_POINT('',(0.0,0.0,0.0));
#430=DIRECTION('',(0.0,0.0,1.0));
#431=DIRECTION('',(0.84615384615383,-0.532938710021219,0.0));
#432=CARTESIAN_POINT('',(0.0,-75.0,0.0));
#433=DIRECTION('',(0.0,-0.0,1.0));
#434=DIRECTION('',(0.166666666666694,0.986013297183265,0.0));
#435=DIRECTION('',(0.0,-1.0,0.0));
#436=DIRECTION('',(1.0,0.0,0.0));
#437=DIRECTION('',(0.0,1.0,0.0));
#438=CARTESIAN_POINT('',(0.0,0.0,0.0));
#439=DIRECTION('',(0.0,0.0,1.0));
#440=DIRECTION('',(0.84615384615383,-0.532938710021219,0.0));
#441=DIRECTION('',(0.0,1.0,0.0));
#442=DIRECTION('',(1.0,0.0,0.0));
#443=DIRECTION('',(0.0,1.0,0.0));
#444=DIRECTION('',(0.0,0.0,-1.0));
#445=CARTESIAN_POINT('',(0.0,-75.0,-1.0));
#446=DIRECTION('',(0.0,-0.0,1.0));
#447=DIRECTION('',(0.0,1.0,0.0));
#448=DIRECTION('',(0.0,0.0,-1.0));
#449=DIRECTION('',(0.0,-1.0,0.0));
#450=DIRECTION('',(0.0,0.0,-1.0));
#451=DIRECTION('',(0.0,0.0,-1.0));
#452=DIRECTION('',(1.0,0.0,0.0));
#453=DIRECTION('',(0.0,1.0,0.0));
#454=DIRECTION('',(0.0,0.0,-1.0));
#455=CARTESIAN_POINT('',(0.0,0.0,-1.0));
#456=DIRECTION('',(0.0,0.0,1.0));
#457=DIRECTION('',(0.84615384615383,-0.532938710021219,0.0));
#458=DIRECTION('',(0.0,1.0,0.0));
#459=DIRECTION('',(0.0,0.0,-1.0));
#460=DIRECTION('',(1.0,0.0,0.0));
#461=DIRECTION('',(0.0,0.0,-1.0));
#462=DIRECTION('',(0.0,1.0,0.0));
ENDSEC;
END-ISO-10303-21;
