ISO-10303-21;
HEADER;
FILE_DESCRIPTION(('STEP AP214'),'1');
FILE_NAME('cctmp_5516987A-263E-4AFD-BD2D-D8B36A92A520_2024_11_21_14_10_11_0410_4552..stp','2024-11-21T13:10:11',('Bosch Rexroth AG'),('CADClick - www.CADClick.com'),'Spatial InterOp 3D',' ','unknown authorization - (Healing Option Enabled)');
FILE_SCHEMA(('AUTOMOTIVE_DESIGN'));
ENDSEC;
DATA;
#1=MECHANICAL_DESIGN_GEOMETRIC_PRESENTATION_REPRESENTATION(' ',(#10,#11,#12,#13,#14,#15,#16,#17,#18,#19,#20,#21,#22,#23,#24,#25),#6);
#2=PRODUCT_DEFINITION_CONTEXT('',#26,'design');
#3=APPLICATION_PROTOCOL_DEFINITION('INTERNATIONAL STANDARD','automotive_design',1994,#26);
#4=PRODUCT_CATEGORY_RELATIONSHIP('NONE','NONE',#27,#28);
#5=SHAPE_DEFINITION_REPRESENTATION(#29,#30);
#6= (GEOMETRIC_REPRESENTATION_CONTEXT(3)GLOBAL_UNCERTAINTY_ASSIGNED_CONTEXT((#33))GLOBAL_UNIT_ASSIGNED_CONTEXT((#35,#36,#37))REPRESENTATION_CONTEXT('NONE','WORKSPACE'));
#10=STYLED_ITEM('',(#39),#40);
#11=STYLED_ITEM('',(#41),#42);
#12=STYLED_ITEM('',(#43),#44);
#13=STYLED_ITEM('',(#45),#46);
#14=STYLED_ITEM('',(#47),#48);
#15=STYLED_ITEM('',(#49),#50);
#16=STYLED_ITEM('',(#51),#52);
#17=STYLED_ITEM('',(#53),#54);
#18=STYLED_ITEM('',(#55),#56);
#19=STYLED_ITEM('',(#57),#58);
#20=STYLED_ITEM('',(#59),#60);
#21=STYLED_ITEM('',(#61),#62);
#22=STYLED_ITEM('',(#63),#64);
#23=STYLED_ITEM('',(#65),#66);
#24=STYLED_ITEM('',(#67),#68);
#25=STYLED_ITEM('',(#69),#70);
#26=APPLICATION_CONTEXT(' ');
#27=PRODUCT_CATEGORY('part','NONE');
#28=PRODUCT_RELATED_PRODUCT_CATEGORY('detail',' ',(#71));
#29=PRODUCT_DEFINITION_SHAPE('NONE','NONE',#72);
#30=ADVANCED_BREP_SHAPE_REPRESENTATION('2024_11_21_14_10_11_0388',(#70,#73),#6);
#33=UNCERTAINTY_MEASURE_WITH_UNIT(LENGTH_MEASURE(1.0E-06),#35,'','');
#35= (CONVERSION_BASED_UNIT('MILLIMETRE',#76)LENGTH_UNIT()NAMED_UNIT(#79));
#36= (NAMED_UNIT(#81)PLANE_ANGLE_UNIT()SI_UNIT($,.RADIAN.));
#37= (NAMED_UNIT(#81)SOLID_ANGLE_UNIT()SI_UNIT($,.STERADIAN.));
#39=PRESENTATION_STYLE_ASSIGNMENT((#87));
#40=ADVANCED_FACE('',(#88),#89,.F.);
#41=PRESENTATION_STYLE_ASSIGNMENT((#90));
#42=ADVANCED_FACE('',(#91),#92,.F.);
#43=PRESENTATION_STYLE_ASSIGNMENT((#93));
#44=ADVANCED_FACE('',(#94),#95,.F.);
#45=PRESENTATION_STYLE_ASSIGNMENT((#96));
#46=ADVANCED_FACE('',(#97),#98,.F.);
#47=PRESENTATION_STYLE_ASSIGNMENT((#99));
#48=ADVANCED_FACE('',(#100,#101),#102,.T.);
#49=PRESENTATION_STYLE_ASSIGNMENT((#103));
#50=ADVANCED_FACE('',(#104),#105,.F.);
#51=PRESENTATION_STYLE_ASSIGNMENT((#106));
#52=ADVANCED_FACE('',(#107,#108,#109),#110,.F.);
#53=PRESENTATION_STYLE_ASSIGNMENT((#111));
#54=ADVANCED_FACE('',(#112),#113,.F.);
#55=PRESENTATION_STYLE_ASSIGNMENT((#114));
#56=ADVANCED_FACE('',(#115,#116,#117),#118,.F.);
#57=PRESENTATION_STYLE_ASSIGNMENT((#119));
#58=ADVANCED_FACE('',(#120),#121,.F.);
#59=PRESENTATION_STYLE_ASSIGNMENT((#122));
#60=ADVANCED_FACE('',(#123),#124,.T.);
#61=PRESENTATION_STYLE_ASSIGNMENT((#125));
#62=ADVANCED_FACE('',(#126),#127,.T.);
#63=PRESENTATION_STYLE_ASSIGNMENT((#128));
#64=ADVANCED_FACE('',(#129),#130,.T.);
#65=PRESENTATION_STYLE_ASSIGNMENT((#131));
#66=ADVANCED_FACE('',(#132),#133,.F.);
#67=PRESENTATION_STYLE_ASSIGNMENT((#134));
#68=ADVANCED_FACE('',(#135),#136,.T.);
#69=PRESENTATION_STYLE_ASSIGNMENT((#137));
#70=MANIFOLD_SOLID_BREP('2024_11_21_14_10_11_0388',#138);
#71=PRODUCT('2024_11_21_14_10_11_0388','2024_11_21_14_10_11_0388','PART-2024_11_21_14_10_11_0388-DESC',(#139));
#72=PRODUCT_DEFINITION('','NONE',#140,#2);
#73=AXIS2_PLACEMENT_3D('',#141,#142,#143);
#76=LENGTH_MEASURE_WITH_UNIT(LENGTH_MEASURE(1.0),#144);
#79=DIMENSIONAL_EXPONENTS(1.0,0.0,0.0,0.0,0.0,0.0,0.0);
#81=DIMENSIONAL_EXPONENTS(0.0,0.0,0.0,0.0,0.0,0.0,0.0);
#87=SURFACE_STYLE_USAGE(.BOTH.,#145);
#88=FACE_OUTER_BOUND('',#146,.T.);
#89=CYLINDRICAL_SURFACE('',#147,4.1);
#90=SURFACE_STYLE_USAGE(.BOTH.,#148);
#91=FACE_OUTER_BOUND('',#149,.T.);
#92=CYLINDRICAL_SURFACE('',#150,4.1);
#93=SURFACE_STYLE_USAGE(.BOTH.,#151);
#94=FACE_OUTER_BOUND('',#152,.T.);
#95=CYLINDRICAL_SURFACE('',#153,4.1);
#96=SURFACE_STYLE_USAGE(.BOTH.,#154);
#97=FACE_OUTER_BOUND('',#155,.T.);
#98=CYLINDRICAL_SURFACE('',#156,4.1);
#99=SURFACE_STYLE_USAGE(.BOTH.,#157);
#100=FACE_OUTER_BOUND('',#158,.T.);
#101=FACE_BOUND('',#159,.T.);
#102=PLANE('',#160);
#103=SURFACE_STYLE_USAGE(.BOTH.,#161);
#104=FACE_OUTER_BOUND('',#162,.T.);
#105=PLANE('',#163);
#106=SURFACE_STYLE_USAGE(.BOTH.,#164);
#107=FACE_BOUND('',#165,.T.);
#108=FACE_BOUND('',#166,.T.);
#109=FACE_OUTER_BOUND('',#167,.T.);
#110=PLANE('',#168);
#111=SURFACE_STYLE_USAGE(.BOTH.,#169);
#112=FACE_OUTER_BOUND('',#170,.T.);
#113=PLANE('',#171);
#114=SURFACE_STYLE_USAGE(.BOTH.,#172);
#115=FACE_BOUND('',#173,.T.);
#116=FACE_BOUND('',#174,.T.);
#117=FACE_OUTER_BOUND('',#175,.T.);
#118=PLANE('',#176);
#119=SURFACE_STYLE_USAGE(.BOTH.,#177);
#120=FACE_OUTER_BOUND('',#178,.T.);
#121=PLANE('',#179);
#122=SURFACE_STYLE_USAGE(.BOTH.,#180);
#123=FACE_OUTER_BOUND('',#181,.T.);
#124=PLANE('',#182);
#125=SURFACE_STYLE_USAGE(.BOTH.,#183);
#126=FACE_OUTER_BOUND('',#184,.T.);
#127=PLANE('',#185);
#128=SURFACE_STYLE_USAGE(.BOTH.,#186);
#129=FACE_OUTER_BOUND('',#187,.T.);
#130=PLANE('',#188);
#131=SURFACE_STYLE_USAGE(.BOTH.,#189);
#132=FACE_OUTER_BOUND('',#190,.T.);
#133=PLANE('',#191);
#134=SURFACE_STYLE_USAGE(.BOTH.,#192);
#135=FACE_OUTER_BOUND('',#193,.T.);
#136=PLANE('',#194);
#137=SURFACE_STYLE_USAGE(.BOTH.,#195);
#138=CLOSED_SHELL('',(#40,#42,#44,#46,#48,#50,#52,#54,#56,#58,#60,#62,#64,#66,#68));
#139=PRODUCT_CONTEXT('',#26,'mechanical');
#140=PRODUCT_DEFINITION_FORMATION_WITH_SPECIFIED_SOURCE(' ','NONE',#71,.NOT_KNOWN.);
#141=CARTESIAN_POINT('',(0.0,0.0,0.0));
#142=DIRECTION('',(0.0,0.0,1.0));
#143=DIRECTION('',(1.0,0.0,0.0));
#144= (NAMED_UNIT(#79)LENGTH_UNIT()SI_UNIT(.MILLI.,.METRE.));
#145=SURFACE_SIDE_STYLE('',(#197));
#146=EDGE_LOOP('',(#198,#199,#200,#201));
#147=AXIS2_PLACEMENT_3D('',#202,#203,#204);
#148=SURFACE_SIDE_STYLE('',(#205));
#149=EDGE_LOOP('',(#206,#207,#208,#209));
#150=AXIS2_PLACEMENT_3D('',#210,#211,#212);
#151=SURFACE_SIDE_STYLE('',(#213));
#152=EDGE_LOOP('',(#214,#215,#216,#217));
#153=AXIS2_PLACEMENT_3D('',#218,#219,#220);
#154=SURFACE_SIDE_STYLE('',(#221));
#155=EDGE_LOOP('',(#222,#223,#224,#225));
#156=AXIS2_PLACEMENT_3D('',#226,#227,#228);
#157=SURFACE_SIDE_STYLE('',(#229));
#158=EDGE_LOOP('',(#230,#231,#232,#233));
#159=EDGE_LOOP('',(#234,#235,#236,#237));
#160=AXIS2_PLACEMENT_3D('',#238,#239,#240);
#161=SURFACE_SIDE_STYLE('',(#241));
#162=EDGE_LOOP('',(#242,#243,#244,#245));
#163=AXIS2_PLACEMENT_3D('',#246,#247,#248);
#164=SURFACE_SIDE_STYLE('',(#249));
#165=EDGE_LOOP('',(#250,#251));
#166=EDGE_LOOP('',(#252,#253));
#167=EDGE_LOOP('',(#254,#255,#256,#257));
#168=AXIS2_PLACEMENT_3D('',#258,#259,#260);
#169=SURFACE_SIDE_STYLE('',(#261));
#170=EDGE_LOOP('',(#262,#263,#264,#265));
#171=AXIS2_PLACEMENT_3D('',#266,#267,#268);
#172=SURFACE_SIDE_STYLE('',(#269));
#173=EDGE_LOOP('',(#270,#271));
#174=EDGE_LOOP('',(#272,#273));
#175=EDGE_LOOP('',(#274,#275,#276,#277));
#176=AXIS2_PLACEMENT_3D('',#278,#279,#280);
#177=SURFACE_SIDE_STYLE('',(#281));
#178=EDGE_LOOP('',(#282,#283,#284,#285));
#179=AXIS2_PLACEMENT_3D('',#286,#287,#288);
#180=SURFACE_SIDE_STYLE('',(#289));
#181=EDGE_LOOP('',(#290,#291,#292,#293));
#182=AXIS2_PLACEMENT_3D('',#294,#295,#296);
#183=SURFACE_SIDE_STYLE('',(#297));
#184=EDGE_LOOP('',(#298,#299,#300,#301));
#185=AXIS2_PLACEMENT_3D('',#302,#303,#304);
#186=SURFACE_SIDE_STYLE('',(#305));
#187=EDGE_LOOP('',(#306,#307,#308,#309));
#188=AXIS2_PLACEMENT_3D('',#310,#311,#312);
#189=SURFACE_SIDE_STYLE('',(#313));
#190=EDGE_LOOP('',(#314,#315,#316,#317));
#191=AXIS2_PLACEMENT_3D('',#318,#319,#320);
#192=SURFACE_SIDE_STYLE('',(#321));
#193=EDGE_LOOP('',(#322,#323,#324,#325));
#194=AXIS2_PLACEMENT_3D('',#326,#327,#328);
#195=SURFACE_SIDE_STYLE('',(#329));
#197=SURFACE_STYLE_FILL_AREA(#330);
#198=ORIENTED_EDGE('',*,*,#331,.F.);
#199=ORIENTED_EDGE('',*,*,#332,.F.);
#200=ORIENTED_EDGE('',*,*,#333,.F.);
#201=ORIENTED_EDGE('',*,*,#334,.F.);
#202=CARTESIAN_POINT('',(3.0,-1.0,0.0));
#203=DIRECTION('',(0.0,0.0,1.0));
#204=DIRECTION('',(1.0,0.0,0.0));
#205=SURFACE_STYLE_FILL_AREA(#335);
#206=ORIENTED_EDGE('',*,*,#336,.F.);
#207=ORIENTED_EDGE('',*,*,#337,.F.);
#208=ORIENTED_EDGE('',*,*,#338,.F.);
#209=ORIENTED_EDGE('',*,*,#339,.F.);
#210=CARTESIAN_POINT('',(41.0,-1.0,0.0));
#211=DIRECTION('',(0.0,0.0,1.0));
#212=DIRECTION('',(1.0,0.0,0.0));
#213=SURFACE_STYLE_FILL_AREA(#340);
#214=ORIENTED_EDGE('',*,*,#336,.T.);
#215=ORIENTED_EDGE('',*,*,#341,.F.);
#216=ORIENTED_EDGE('',*,*,#338,.T.);
#217=ORIENTED_EDGE('',*,*,#342,.F.);
#218=CARTESIAN_POINT('',(41.0,-1.0,0.0));
#219=DIRECTION('',(0.0,0.0,1.0));
#220=DIRECTION('',(1.0,0.0,0.0));
#221=SURFACE_STYLE_FILL_AREA(#343);
#222=ORIENTED_EDGE('',*,*,#331,.T.);
#223=ORIENTED_EDGE('',*,*,#344,.F.);
#224=ORIENTED_EDGE('',*,*,#333,.T.);
#225=ORIENTED_EDGE('',*,*,#345,.F.);
#226=CARTESIAN_POINT('',(3.0,-1.0,0.0));
#227=DIRECTION('',(0.0,0.0,1.0));
#228=DIRECTION('',(1.0,0.0,0.0));
#229=SURFACE_STYLE_FILL_AREA(#346);
#230=ORIENTED_EDGE('',*,*,#347,.T.);
#231=ORIENTED_EDGE('',*,*,#348,.T.);
#232=ORIENTED_EDGE('',*,*,#349,.T.);
#233=ORIENTED_EDGE('',*,*,#350,.T.);
#234=ORIENTED_EDGE('',*,*,#351,.T.);
#235=ORIENTED_EDGE('',*,*,#352,.T.);
#236=ORIENTED_EDGE('',*,*,#353,.F.);
#237=ORIENTED_EDGE('',*,*,#354,.T.);
#238=CARTESIAN_POINT('',(22.0,38.0,0.0));
#239=DIRECTION('',(-0.0,1.0,0.0));
#240=DIRECTION('',(1.0,0.0,0.0));
#241=SURFACE_STYLE_FILL_AREA(#355);
#242=ORIENTED_EDGE('',*,*,#356,.T.);
#243=ORIENTED_EDGE('',*,*,#357,.T.);
#244=ORIENTED_EDGE('',*,*,#358,.T.);
#245=ORIENTED_EDGE('',*,*,#359,.T.);
#246=CARTESIAN_POINT('',(22.0,-38.0,0.0));
#247=DIRECTION('',(-0.0,1.0,0.0));
#248=DIRECTION('',(1.0,0.0,0.0));
#249=SURFACE_STYLE_FILL_AREA(#360);
#250=ORIENTED_EDGE('',*,*,#342,.T.);
#251=ORIENTED_EDGE('',*,*,#337,.T.);
#252=ORIENTED_EDGE('',*,*,#345,.T.);
#253=ORIENTED_EDGE('',*,*,#332,.T.);
#254=ORIENTED_EDGE('',*,*,#361,.T.);
#255=ORIENTED_EDGE('',*,*,#357,.F.);
#256=ORIENTED_EDGE('',*,*,#362,.F.);
#257=ORIENTED_EDGE('',*,*,#350,.F.);
#258=CARTESIAN_POINT('',(22.0,0.0,20.5));
#259=DIRECTION('',(0.0,0.0,-1.0));
#260=DIRECTION('',(0.0,1.0,0.0));
#261=SURFACE_STYLE_FILL_AREA(#363);
#262=ORIENTED_EDGE('',*,*,#364,.T.);
#263=ORIENTED_EDGE('',*,*,#358,.F.);
#264=ORIENTED_EDGE('',*,*,#361,.F.);
#265=ORIENTED_EDGE('',*,*,#349,.F.);
#266=CARTESIAN_POINT('',(-5.5,0.0,0.0));
#267=DIRECTION('',(1.0,0.0,0.0));
#268=DIRECTION('',(0.0,-1.0,0.0));
#269=SURFACE_STYLE_FILL_AREA(#365);
#270=ORIENTED_EDGE('',*,*,#339,.T.);
#271=ORIENTED_EDGE('',*,*,#341,.T.);
#272=ORIENTED_EDGE('',*,*,#334,.T.);
#273=ORIENTED_EDGE('',*,*,#344,.T.);
#274=ORIENTED_EDGE('',*,*,#366,.T.);
#275=ORIENTED_EDGE('',*,*,#359,.F.);
#276=ORIENTED_EDGE('',*,*,#364,.F.);
#277=ORIENTED_EDGE('',*,*,#348,.F.);
#278=CARTESIAN_POINT('',(22.0,0.0,-20.5));
#279=DIRECTION('',(0.0,0.0,1.0));
#280=DIRECTION('',(0.0,-1.0,0.0));
#281=SURFACE_STYLE_FILL_AREA(#367);
#282=ORIENTED_EDGE('',*,*,#362,.T.);
#283=ORIENTED_EDGE('',*,*,#356,.F.);
#284=ORIENTED_EDGE('',*,*,#366,.F.);
#285=ORIENTED_EDGE('',*,*,#347,.F.);
#286=CARTESIAN_POINT('',(49.5,0.0,0.0));
#287=DIRECTION('',(-1.0,0.0,0.0));
#288=DIRECTION('',(0.0,1.0,0.0));
#289=SURFACE_STYLE_FILL_AREA(#368);
#290=ORIENTED_EDGE('',*,*,#369,.T.);
#291=ORIENTED_EDGE('',*,*,#370,.F.);
#292=ORIENTED_EDGE('',*,*,#371,.T.);
#293=ORIENTED_EDGE('',*,*,#353,.T.);
#294=CARTESIAN_POINT('',(-0.5,42.75,-10.0));
#295=DIRECTION('',(-1.0,0.0,0.0));
#296=DIRECTION('',(0.0,-1.0,0.0));
#297=SURFACE_STYLE_FILL_AREA(#372);
#298=ORIENTED_EDGE('',*,*,#373,.T.);
#299=ORIENTED_EDGE('',*,*,#374,.F.);
#300=ORIENTED_EDGE('',*,*,#375,.T.);
#301=ORIENTED_EDGE('',*,*,#370,.T.);
#302=CARTESIAN_POINT('',(13.75,47.5,-10.0));
#303=DIRECTION('',(0.0,1.0,0.0));
#304=DIRECTION('',(-1.0,0.0,0.0));
#305=SURFACE_STYLE_FILL_AREA(#376);
#306=ORIENTED_EDGE('',*,*,#377,.T.);
#307=ORIENTED_EDGE('',*,*,#351,.F.);
#308=ORIENTED_EDGE('',*,*,#378,.T.);
#309=ORIENTED_EDGE('',*,*,#374,.T.);
#310=CARTESIAN_POINT('',(30.75,42.75,-10.0));
#311=DIRECTION('',(0.865426285481126,0.501036270541705,0.0));
#312=DIRECTION('',(-0.501036270541705,0.865426285481126,0.0));
#313=SURFACE_STYLE_FILL_AREA(#379);
#314=ORIENTED_EDGE('',*,*,#354,.F.);
#315=ORIENTED_EDGE('',*,*,#371,.F.);
#316=ORIENTED_EDGE('',*,*,#375,.F.);
#317=ORIENTED_EDGE('',*,*,#378,.F.);
#318=CARTESIAN_POINT('',(15.4943123000125,42.435154662852,-10.0));
#319=DIRECTION('',(0.0,0.0,1.0));
#320=DIRECTION('',(1.0,0.0,0.0));
#321=SURFACE_STYLE_FILL_AREA(#380);
#322=ORIENTED_EDGE('',*,*,#369,.F.);
#323=ORIENTED_EDGE('',*,*,#352,.F.);
#324=ORIENTED_EDGE('',*,*,#377,.F.);
#325=ORIENTED_EDGE('',*,*,#373,.F.);
#326=CARTESIAN_POINT('',(15.4943123000125,42.435154662852,10.0));
#327=DIRECTION('',(0.0,0.0,1.0));
#328=DIRECTION('',(1.0,0.0,0.0));
#329=SURFACE_STYLE_FILL_AREA(#381);
#330=FILL_AREA_STYLE('',(#382));
#331=EDGE_CURVE('',#383,#384,#385,.T.);
#332=EDGE_CURVE('',#386,#383,#387,.T.);
#333=EDGE_CURVE('',#388,#386,#389,.T.);
#334=EDGE_CURVE('',#384,#388,#390,.T.);
#335=FILL_AREA_STYLE('',(#391));
#336=EDGE_CURVE('',#392,#393,#394,.T.);
#337=EDGE_CURVE('',#395,#392,#396,.T.);
#338=EDGE_CURVE('',#397,#395,#398,.T.);
#339=EDGE_CURVE('',#393,#397,#399,.T.);
#340=FILL_AREA_STYLE('',(#400));
#341=EDGE_CURVE('',#397,#393,#401,.T.);
#342=EDGE_CURVE('',#392,#395,#402,.T.);
#343=FILL_AREA_STYLE('',(#403));
#344=EDGE_CURVE('',#388,#384,#404,.T.);
#345=EDGE_CURVE('',#383,#386,#405,.T.);
#346=FILL_AREA_STYLE('',(#406));
#347=EDGE_CURVE('',#407,#408,#409,.T.);
#348=EDGE_CURVE('',#408,#410,#411,.T.);
#349=EDGE_CURVE('',#410,#412,#413,.T.);
#350=EDGE_CURVE('',#412,#407,#414,.T.);
#351=EDGE_CURVE('',#415,#416,#417,.T.);
#352=EDGE_CURVE('',#416,#418,#419,.T.);
#353=EDGE_CURVE('',#420,#418,#421,.T.);
#354=EDGE_CURVE('',#420,#415,#422,.T.);
#355=FILL_AREA_STYLE('',(#423));
#356=EDGE_CURVE('',#424,#425,#426,.T.);
#357=EDGE_CURVE('',#425,#427,#428,.T.);
#358=EDGE_CURVE('',#427,#429,#430,.T.);
#359=EDGE_CURVE('',#429,#424,#431,.T.);
#360=FILL_AREA_STYLE('',(#432));
#361=EDGE_CURVE('',#412,#427,#433,.T.);
#362=EDGE_CURVE('',#407,#425,#434,.T.);
#363=FILL_AREA_STYLE('',(#435));
#364=EDGE_CURVE('',#410,#429,#436,.T.);
#365=FILL_AREA_STYLE('',(#437));
#366=EDGE_CURVE('',#408,#424,#438,.T.);
#367=FILL_AREA_STYLE('',(#439));
#368=FILL_AREA_STYLE('',(#440));
#369=EDGE_CURVE('',#418,#441,#442,.T.);
#370=EDGE_CURVE('',#443,#441,#444,.T.);
#371=EDGE_CURVE('',#443,#420,#445,.T.);
#372=FILL_AREA_STYLE('',(#446));
#373=EDGE_CURVE('',#441,#447,#448,.T.);
#374=EDGE_CURVE('',#449,#447,#450,.T.);
#375=EDGE_CURVE('',#449,#443,#451,.T.);
#376=FILL_AREA_STYLE('',(#452));
#377=EDGE_CURVE('',#447,#416,#453,.T.);
#378=EDGE_CURVE('',#415,#449,#454,.T.);
#379=FILL_AREA_STYLE('',(#455));
#380=FILL_AREA_STYLE('',(#456));
#381=FILL_AREA_STYLE('',(#457));
#382=FILL_AREA_STYLE_COLOUR('',#458);
#383=VERTEX_POINT('',#459);
#384=VERTEX_POINT('',#460);
#385=LINE('',#461,#462);
#386=VERTEX_POINT('',#463);
#387=CIRCLE('',#464,4.1);
#388=VERTEX_POINT('',#465);
#389=LINE('',#466,#467);
#390=CIRCLE('',#468,4.1);
#391=FILL_AREA_STYLE_COLOUR('',#469);
#392=VERTEX_POINT('',#470);
#393=VERTEX_POINT('',#471);
#394=LINE('',#472,#473);
#395=VERTEX_POINT('',#474);
#396=CIRCLE('',#475,4.1);
#397=VERTEX_POINT('',#476);
#398=LINE('',#477,#478);
#399=CIRCLE('',#479,4.1);
#400=FILL_AREA_STYLE_COLOUR('',#480);
#401=CIRCLE('',#481,4.1);
#402=CIRCLE('',#482,4.1);
#403=FILL_AREA_STYLE_COLOUR('',#483);
#404=CIRCLE('',#484,4.1);
#405=CIRCLE('',#485,4.1);
#406=FILL_AREA_STYLE_COLOUR('',#486);
#407=VERTEX_POINT('',#487);
#408=VERTEX_POINT('',#488);
#409=LINE('',#489,#490);
#410=VERTEX_POINT('',#491);
#411=LINE('',#492,#493);
#412=VERTEX_POINT('',#494);
#413=LINE('',#495,#496);
#414=LINE('',#497,#498);
#415=VERTEX_POINT('',#499);
#416=VERTEX_POINT('',#500);
#417=LINE('',#501,#502);
#418=VERTEX_POINT('',#503);
#419=LINE('',#504,#505);
#420=VERTEX_POINT('',#506);
#421=LINE('',#507,#508);
#422=LINE('',#509,#510);
#423=FILL_AREA_STYLE_COLOUR('',#511);
#424=VERTEX_POINT('',#512);
#425=VERTEX_POINT('',#513);
#426=LINE('',#514,#515);
#427=VERTEX_POINT('',#516);
#428=LINE('',#517,#518);
#429=VERTEX_POINT('',#519);
#430=LINE('',#520,#521);
#431=LINE('',#522,#523);
#432=FILL_AREA_STYLE_COLOUR('',#524);
#433=LINE('',#525,#526);
#434=LINE('',#527,#528);
#435=FILL_AREA_STYLE_COLOUR('',#529);
#436=LINE('',#530,#531);
#437=FILL_AREA_STYLE_COLOUR('',#532);
#438=LINE('',#533,#534);
#439=FILL_AREA_STYLE_COLOUR('',#535);
#440=FILL_AREA_STYLE_COLOUR('',#536);
#441=VERTEX_POINT('',#537);
#442=LINE('',#538,#539);
#443=VERTEX_POINT('',#540);
#444=LINE('',#541,#542);
#445=LINE('',#543,#544);
#446=FILL_AREA_STYLE_COLOUR('',#545);
#447=VERTEX_POINT('',#546);
#448=LINE('',#547,#548);
#449=VERTEX_POINT('',#549);
#450=LINE('',#550,#551);
#451=LINE('',#552,#553);
#452=FILL_AREA_STYLE_COLOUR('',#554);
#453=LINE('',#555,#556);
#454=LINE('',#557,#558);
#455=FILL_AREA_STYLE_COLOUR('',#559);
#456=FILL_AREA_STYLE_COLOUR('',#560);
#457=FILL_AREA_STYLE_COLOUR('',#561);
#458=COLOUR_RGB('',0.509803950786591,0.509803950786591,0.588235318660736);
#459=CARTESIAN_POINT('',(7.1,-1.0,20.5));
#460=CARTESIAN_POINT('',(7.1,-1.0,-20.5));
#461=CARTESIAN_POINT('',(7.1,-1.0,0.0));
#462=VECTOR('',#562,1.0);
#463=CARTESIAN_POINT('',(-1.1,-0.999999999999999,20.5));
#464=AXIS2_PLACEMENT_3D('',#563,#564,#565);
#465=CARTESIAN_POINT('',(-1.1,-0.999999999999999,-20.5));
#466=CARTESIAN_POINT('',(-1.1,-0.999999999999999,0.0));
#467=VECTOR('',#566,1.0);
#468=AXIS2_PLACEMENT_3D('',#567,#568,#569);
#469=COLOUR_RGB('',0.509803950786591,0.509803950786591,0.588235318660736);
#470=CARTESIAN_POINT('',(45.1,-1.0,20.5));
#471=CARTESIAN_POINT('',(45.1,-1.0,-20.5));
#472=CARTESIAN_POINT('',(45.1,-1.0,0.0));
#473=VECTOR('',#570,1.0);
#474=CARTESIAN_POINT('',(36.9,-0.999999999999999,20.5));
#475=AXIS2_PLACEMENT_3D('',#571,#572,#573);
#476=CARTESIAN_POINT('',(36.9,-0.999999999999999,-20.5));
#477=CARTESIAN_POINT('',(36.9,-0.999999999999999,0.0));
#478=VECTOR('',#574,1.0);
#479=AXIS2_PLACEMENT_3D('',#575,#576,#577);
#480=COLOUR_RGB('',0.509803950786591,0.509803950786591,0.588235318660736);
#481=AXIS2_PLACEMENT_3D('',#578,#579,#580);
#482=AXIS2_PLACEMENT_3D('',#581,#582,#583);
#483=COLOUR_RGB('',0.509803950786591,0.509803950786591,0.588235318660736);
#484=AXIS2_PLACEMENT_3D('',#584,#585,#586);
#485=AXIS2_PLACEMENT_3D('',#587,#588,#589);
#486=COLOUR_RGB('',0.509803950786591,0.509803950786591,0.588235318660736);
#487=CARTESIAN_POINT('',(49.5,38.0,20.5));
#488=CARTESIAN_POINT('',(49.5,38.0,-20.5));
#489=CARTESIAN_POINT('',(49.5,38.0,0.0));
#490=VECTOR('',#590,1.0);
#491=CARTESIAN_POINT('',(-5.5,38.0,-20.5));
#492=CARTESIAN_POINT('',(22.0,38.0,-20.5));
#493=VECTOR('',#591,1.0);
#494=CARTESIAN_POINT('',(-5.5,38.0,20.5));
#495=CARTESIAN_POINT('',(-5.5,38.0,0.0));
#496=VECTOR('',#592,1.0);
#497=CARTESIAN_POINT('',(22.0,38.0,20.5));
#498=VECTOR('',#593,1.0);
#499=CARTESIAN_POINT('',(33.5,38.0,-10.0));
#500=CARTESIAN_POINT('',(33.5,38.0,10.0));
#501=CARTESIAN_POINT('',(33.5,38.0,-10.0));
#502=VECTOR('',#594,1.0);
#503=CARTESIAN_POINT('',(-0.5,38.0,10.0));
#504=CARTESIAN_POINT('',(-0.5,38.0,10.0));
#505=VECTOR('',#595,1.0);
#506=CARTESIAN_POINT('',(-0.5,38.0,-10.0));
#507=CARTESIAN_POINT('',(-0.5,38.0,-10.0));
#508=VECTOR('',#596,1.0);
#509=CARTESIAN_POINT('',(-0.5,38.0,-10.0));
#510=VECTOR('',#597,1.0);
#511=COLOUR_RGB('',0.509803950786591,0.509803950786591,0.588235318660736);
#512=CARTESIAN_POINT('',(49.5,-38.0,-20.5));
#513=CARTESIAN_POINT('',(49.5,-38.0,20.5));
#514=CARTESIAN_POINT('',(49.5,-38.0,0.0));
#515=VECTOR('',#598,1.0);
#516=CARTESIAN_POINT('',(-5.5,-38.0,20.5));
#517=CARTESIAN_POINT('',(22.0,-38.0,20.5));
#518=VECTOR('',#599,1.0);
#519=CARTESIAN_POINT('',(-5.5,-38.0,-20.5));
#520=CARTESIAN_POINT('',(-5.5,-38.0,0.0));
#521=VECTOR('',#600,1.0);
#522=CARTESIAN_POINT('',(22.0,-38.0,-20.5));
#523=VECTOR('',#601,1.0);
#524=COLOUR_RGB('',0.509803950786591,0.509803950786591,0.588235318660736);
#525=CARTESIAN_POINT('',(-5.5,0.0,20.5));
#526=VECTOR('',#602,1.0);
#527=CARTESIAN_POINT('',(49.5,0.0,20.5));
#528=VECTOR('',#603,1.0);
#529=COLOUR_RGB('',0.509803950786591,0.509803950786591,0.588235318660736);
#530=CARTESIAN_POINT('',(-5.5,0.0,-20.5));
#531=VECTOR('',#604,1.0);
#532=COLOUR_RGB('',0.509803950786591,0.509803950786591,0.588235318660736);
#533=CARTESIAN_POINT('',(49.5,0.0,-20.5));
#534=VECTOR('',#605,1.0);
#535=COLOUR_RGB('',0.509803950786591,0.509803950786591,0.588235318660736);
#536=COLOUR_RGB('',0.509803950786591,0.509803950786591,0.588235318660736);
#537=CARTESIAN_POINT('',(-0.5,47.5,10.0));
#538=CARTESIAN_POINT('',(-0.5,47.5,10.0));
#539=VECTOR('',#606,1.0);
#540=CARTESIAN_POINT('',(-0.5,47.5,-10.0));
#541=CARTESIAN_POINT('',(-0.5,47.5,-10.0));
#542=VECTOR('',#607,1.0);
#543=CARTESIAN_POINT('',(-0.5,47.5,-10.0));
#544=VECTOR('',#608,1.0);
#545=COLOUR_RGB('',0.509803950786591,0.509803950786591,0.588235318660736);
#546=CARTESIAN_POINT('',(28.0,47.5,10.0));
#547=CARTESIAN_POINT('',(28.0,47.5,10.0));
#548=VECTOR('',#609,1.0);
#549=CARTESIAN_POINT('',(28.0,47.5,-10.0));
#550=CARTESIAN_POINT('',(28.0,47.5,-10.0));
#551=VECTOR('',#610,1.0);
#552=CARTESIAN_POINT('',(28.0,47.5,-10.0));
#553=VECTOR('',#611,1.0);
#554=COLOUR_RGB('',0.509803950786591,0.509803950786591,0.588235318660736);
#555=CARTESIAN_POINT('',(33.5,38.0,10.0));
#556=VECTOR('',#612,1.0);
#557=CARTESIAN_POINT('',(33.5,38.0,-10.0));
#558=VECTOR('',#613,1.0);
#559=COLOUR_RGB('',0.509803950786591,0.509803950786591,0.588235318660736);
#560=COLOUR_RGB('',0.509803950786591,0.509803950786591,0.588235318660736);
#561=COLOUR_RGB('',0.509803950786591,0.509803950786591,0.588235318660736);
#562=DIRECTION('',(-0.0,0.0,-1.0));
#563=CARTESIAN_POINT('',(3.0,-1.0,20.5));
#564=DIRECTION('',(0.0,0.0,-1.0));
#565=DIRECTION('',(1.0,0.0,0.0));
#566=DIRECTION('',(-0.0,0.0,1.0));
#567=CARTESIAN_POINT('',(3.0,-1.0,-20.5));
#568=DIRECTION('',(0.0,0.0,1.0));
#569=DIRECTION('',(1.0,0.0,0.0));
#570=DIRECTION('',(-0.0,0.0,-1.0));
#571=CARTESIAN_POINT('',(41.0,-1.0,20.5));
#572=DIRECTION('',(0.0,0.0,-1.0));
#573=DIRECTION('',(1.0,0.0,0.0));
#574=DIRECTION('',(-0.0,0.0,1.0));
#575=CARTESIAN_POINT('',(41.0,-1.0,-20.5));
#576=DIRECTION('',(0.0,0.0,1.0));
#577=DIRECTION('',(1.0,0.0,0.0));
#578=CARTESIAN_POINT('',(41.0,-1.0,-20.5));
#579=DIRECTION('',(0.0,0.0,1.0));
#580=DIRECTION('',(1.0,0.0,0.0));
#581=CARTESIAN_POINT('',(41.0,-1.0,20.5));
#582=DIRECTION('',(0.0,0.0,-1.0));
#583=DIRECTION('',(1.0,0.0,0.0));
#584=CARTESIAN_POINT('',(3.0,-1.0,-20.5));
#585=DIRECTION('',(0.0,0.0,1.0));
#586=DIRECTION('',(1.0,0.0,0.0));
#587=CARTESIAN_POINT('',(3.0,-1.0,20.5));
#588=DIRECTION('',(0.0,0.0,-1.0));
#589=DIRECTION('',(1.0,0.0,0.0));
#590=DIRECTION('',(0.0,0.0,-1.0));
#591=DIRECTION('',(-1.0,0.0,0.0));
#592=DIRECTION('',(0.0,0.0,1.0));
#593=DIRECTION('',(1.0,0.0,0.0));
#594=DIRECTION('',(0.0,0.0,1.0));
#595=DIRECTION('',(-1.0,-0.0,-0.0));
#596=DIRECTION('',(0.0,0.0,1.0));
#597=DIRECTION('',(1.0,0.0,0.0));
#598=DIRECTION('',(0.0,0.0,1.0));
#599=DIRECTION('',(-1.0,0.0,0.0));
#600=DIRECTION('',(0.0,0.0,-1.0));
#601=DIRECTION('',(1.0,0.0,0.0));
#602=DIRECTION('',(0.0,-1.0,0.0));
#603=DIRECTION('',(0.0,-1.0,0.0));
#604=DIRECTION('',(0.0,-1.0,0.0));
#605=DIRECTION('',(0.0,-1.0,0.0));
#606=DIRECTION('',(0.0,1.0,0.0));
#607=DIRECTION('',(0.0,0.0,1.0));
#608=DIRECTION('',(0.0,-1.0,0.0));
#609=DIRECTION('',(1.0,0.0,0.0));
#610=DIRECTION('',(0.0,0.0,1.0));
#611=DIRECTION('',(-1.0,0.0,0.0));
#612=DIRECTION('',(0.501036270541705,-0.865426285481126,0.0));
#613=DIRECTION('',(-0.501036270541705,0.865426285481126,0.0));
ENDSEC;
END-ISO-10303-21;
