ISO-10303-21;
HEADER;
FILE_DESCRIPTION(('STEP AP214'),'1');
FILE_NAME('cctmp_56F6FD8B-CB4E-450A-8A4E-B1BF70A1ED1D_2024_11_12_10_24_20_0923_4168..stp','2024-11-12T09:24:21',('Bosch Rexroth AG'),('CADClick - www.CADClick.com'),'Spatial InterOp 3D',' ','unknown authorization - (Healing Option Enabled)');
FILE_SCHEMA(('AUTOMOTIVE_DESIGN'));
ENDSEC;
DATA;
#1=MECHANICAL_DESIGN_GEOMETRIC_PRESENTATION_REPRESENTATION(' ',(#10,#11,#12,#13,#14,#15,#16,#17,#18,#19,#20,#21),#6);
#2=PRODUCT_DEFINITION_CONTEXT('',#22,'design');
#3=APPLICATION_PROTOCOL_DEFINITION('INTERNATIONAL STANDARD','automotive_design',1994,#22);
#4=PRODUCT_CATEGORY_RELATIONSHIP('NONE','NONE',#23,#24);
#5=SHAPE_DEFINITION_REPRESENTATION(#25,#26);
#6= (GEOMETRIC_REPRESENTATION_CONTEXT(3)GLOBAL_UNCERTAINTY_ASSIGNED_CONTEXT((#29))GLOBAL_UNIT_ASSIGNED_CONTEXT((#31,#32,#33))REPRESENTATION_CONTEXT('NONE','WORKSPACE'));
#10=STYLED_ITEM('',(#35),#36);
#11=STYLED_ITEM('',(#37),#38);
#12=STYLED_ITEM('',(#39),#40);
#13=STYLED_ITEM('',(#41),#42);
#14=STYLED_ITEM('',(#43),#44);
#15=STYLED_ITEM('',(#45),#46);
#16=STYLED_ITEM('',(#47),#48);
#17=STYLED_ITEM('',(#49),#50);
#18=STYLED_ITEM('',(#51),#52);
#19=STYLED_ITEM('',(#53),#54);
#20=STYLED_ITEM('',(#55),#56);
#21=STYLED_ITEM('',(#57),#58);
#22=APPLICATION_CONTEXT(' ');
#23=PRODUCT_CATEGORY('part','NONE');
#24=PRODUCT_RELATED_PRODUCT_CATEGORY('detail',' ',(#59));
#25=PRODUCT_DEFINITION_SHAPE('NONE','NONE',#60);
#26=ADVANCED_BREP_SHAPE_REPRESENTATION('2024_11_12_10_24_20_0907',(#58,#61),#6);
#29=UNCERTAINTY_MEASURE_WITH_UNIT(LENGTH_MEASURE(1.0E-06),#31,'','');
#31= (CONVERSION_BASED_UNIT('MILLIMETRE',#64)LENGTH_UNIT()NAMED_UNIT(#67));
#32= (NAMED_UNIT(#69)PLANE_ANGLE_UNIT()SI_UNIT($,.RADIAN.));
#33= (NAMED_UNIT(#69)SOLID_ANGLE_UNIT()SI_UNIT($,.STERADIAN.));
#35=PRESENTATION_STYLE_ASSIGNMENT((#75));
#36=ADVANCED_FACE('',(#76),#77,.T.);
#37=PRESENTATION_STYLE_ASSIGNMENT((#78));
#38=ADVANCED_FACE('',(#79),#80,.T.);
#39=PRESENTATION_STYLE_ASSIGNMENT((#81));
#40=ADVANCED_FACE('',(#82),#83,.T.);
#41=PRESENTATION_STYLE_ASSIGNMENT((#84));
#42=ADVANCED_FACE('',(#85),#86,.T.);
#43=PRESENTATION_STYLE_ASSIGNMENT((#87));
#44=ADVANCED_FACE('',(#88),#89,.T.);
#45=PRESENTATION_STYLE_ASSIGNMENT((#90));
#46=ADVANCED_FACE('',(#91),#92,.T.);
#47=PRESENTATION_STYLE_ASSIGNMENT((#93));
#48=ADVANCED_FACE('',(#94),#95,.T.);
#49=PRESENTATION_STYLE_ASSIGNMENT((#96));
#50=ADVANCED_FACE('',(#97,#98),#99,.T.);
#51=PRESENTATION_STYLE_ASSIGNMENT((#100));
#52=ADVANCED_FACE('',(#101),#102,.T.);
#53=PRESENTATION_STYLE_ASSIGNMENT((#103));
#54=ADVANCED_FACE('',(#104),#105,.T.);
#55=PRESENTATION_STYLE_ASSIGNMENT((#106));
#56=ADVANCED_FACE('',(#107),#108,.F.);
#57=PRESENTATION_STYLE_ASSIGNMENT((#109));
#58=MANIFOLD_SOLID_BREP('2024_11_12_10_24_20_0907',#110);
#59=PRODUCT('2024_11_12_10_24_20_0907','2024_11_12_10_24_20_0907','PART-2024_11_12_10_24_20_0907-DESC',(#111));
#60=PRODUCT_DEFINITION('','NONE',#112,#2);
#61=AXIS2_PLACEMENT_3D('',#113,#114,#115);
#64=LENGTH_MEASURE_WITH_UNIT(LENGTH_MEASURE(1.0),#116);
#67=DIMENSIONAL_EXPONENTS(1.0,0.0,0.0,0.0,0.0,0.0,0.0);
#69=DIMENSIONAL_EXPONENTS(0.0,0.0,0.0,0.0,0.0,0.0,0.0);
#75=SURFACE_STYLE_USAGE(.BOTH.,#117);
#76=FACE_OUTER_BOUND('',#118,.T.);
#77=CONICAL_SURFACE('',#119,1.0,0.7853981625);
#78=SURFACE_STYLE_USAGE(.BOTH.,#120);
#79=FACE_OUTER_BOUND('',#121,.T.);
#80=CONICAL_SURFACE('',#122,1.0,0.7853981625);
#81=SURFACE_STYLE_USAGE(.BOTH.,#123);
#82=FACE_OUTER_BOUND('',#124,.T.);
#83=PLANE('',#125);
#84=SURFACE_STYLE_USAGE(.BOTH.,#126);
#85=FACE_OUTER_BOUND('',#127,.T.);
#86=CONICAL_SURFACE('',#128,1.0,0.7853981625);
#87=SURFACE_STYLE_USAGE(.BOTH.,#129);
#88=FACE_OUTER_BOUND('',#130,.T.);
#89=CONICAL_SURFACE('',#131,1.0,0.7853981625);
#90=SURFACE_STYLE_USAGE(.BOTH.,#132);
#91=FACE_OUTER_BOUND('',#133,.T.);
#92=CYLINDRICAL_SURFACE('',#134,3.0);
#93=SURFACE_STYLE_USAGE(.BOTH.,#135);
#94=FACE_OUTER_BOUND('',#136,.T.);
#95=CYLINDRICAL_SURFACE('',#137,3.0);
#96=SURFACE_STYLE_USAGE(.BOTH.,#138);
#97=FACE_OUTER_BOUND('',#139,.T.);
#98=FACE_BOUND('',#140,.T.);
#99=PLANE('',#141);
#100=SURFACE_STYLE_USAGE(.BOTH.,#142);
#101=FACE_OUTER_BOUND('',#143,.T.);
#102=CYLINDRICAL_SURFACE('',#144,10.0);
#103=SURFACE_STYLE_USAGE(.BOTH.,#145);
#104=FACE_OUTER_BOUND('',#146,.T.);
#105=CYLINDRICAL_SURFACE('',#147,10.0);
#106=SURFACE_STYLE_USAGE(.BOTH.,#148);
#107=FACE_OUTER_BOUND('',#149,.T.);
#108=PLANE('',#150);
#109=SURFACE_STYLE_USAGE(.BOTH.,#151);
#110=CLOSED_SHELL('',(#36,#38,#40,#42,#44,#46,#48,#50,#52,#54,#56));
#111=PRODUCT_CONTEXT('',#22,'mechanical');
#112=PRODUCT_DEFINITION_FORMATION_WITH_SPECIFIED_SOURCE(' ','NONE',#59,.NOT_KNOWN.);
#113=CARTESIAN_POINT('',(0.0,0.0,0.0));
#114=DIRECTION('',(0.0,0.0,1.0));
#115=DIRECTION('',(1.0,0.0,0.0));
#116= (NAMED_UNIT(#67)LENGTH_UNIT()SI_UNIT(.MILLI.,.METRE.));
#117=SURFACE_SIDE_STYLE('',(#153));
#118=EDGE_LOOP('',(#154,#155,#156,#157));
#119=AXIS2_PLACEMENT_3D('',#158,#159,#160);
#120=SURFACE_SIDE_STYLE('',(#161));
#121=EDGE_LOOP('',(#162,#163,#164,#165));
#122=AXIS2_PLACEMENT_3D('',#166,#167,#168);
#123=SURFACE_SIDE_STYLE('',(#169));
#124=EDGE_LOOP('',(#170,#171,#172,#173));
#125=AXIS2_PLACEMENT_3D('',#174,#175,#176);
#126=SURFACE_SIDE_STYLE('',(#177));
#127=EDGE_LOOP('',(#178,#179,#180,#181));
#128=AXIS2_PLACEMENT_3D('',#182,#183,#184);
#129=SURFACE_SIDE_STYLE('',(#185));
#130=EDGE_LOOP('',(#186,#187,#188,#189));
#131=AXIS2_PLACEMENT_3D('',#190,#191,#192);
#132=SURFACE_SIDE_STYLE('',(#193));
#133=EDGE_LOOP('',(#194,#195,#196,#197,#198));
#134=AXIS2_PLACEMENT_3D('',#199,#200,#201);
#135=SURFACE_SIDE_STYLE('',(#202));
#136=EDGE_LOOP('',(#203,#204,#205,#206,#207));
#137=AXIS2_PLACEMENT_3D('',#208,#209,#210);
#138=SURFACE_SIDE_STYLE('',(#211));
#139=EDGE_LOOP('',(#212,#213));
#140=EDGE_LOOP('',(#214,#215));
#141=AXIS2_PLACEMENT_3D('',#216,#217,#218);
#142=SURFACE_SIDE_STYLE('',(#219));
#143=EDGE_LOOP('',(#220,#221,#222,#223));
#144=AXIS2_PLACEMENT_3D('',#224,#225,#226);
#145=SURFACE_SIDE_STYLE('',(#227));
#146=EDGE_LOOP('',(#228,#229,#230,#231));
#147=AXIS2_PLACEMENT_3D('',#232,#233,#234);
#148=SURFACE_SIDE_STYLE('',(#235));
#149=EDGE_LOOP('',(#236,#237));
#150=AXIS2_PLACEMENT_3D('',#238,#239,#240);
#151=SURFACE_SIDE_STYLE('',(#241));
#153=SURFACE_STYLE_FILL_AREA(#242);
#154=ORIENTED_EDGE('',*,*,#243,.F.);
#155=ORIENTED_EDGE('',*,*,#244,.T.);
#156=ORIENTED_EDGE('',*,*,#245,.F.);
#157=ORIENTED_EDGE('',*,*,#246,.F.);
#158=CARTESIAN_POINT('',(-9.16711115E-13,-7.0414868E-16,-11.5));
#159=DIRECTION('',(7.971401E-14,6.123032E-17,1.0));
#160=DIRECTION('',(1.0,0.0,-7.971401E-14));
#161=SURFACE_STYLE_FILL_AREA(#247);
#162=ORIENTED_EDGE('',*,*,#248,.F.);
#163=ORIENTED_EDGE('',*,*,#249,.F.);
#164=ORIENTED_EDGE('',*,*,#250,.F.);
#165=ORIENTED_EDGE('',*,*,#251,.T.);
#166=CARTESIAN_POINT('',(-9.16711115E-13,-7.0414868E-16,-11.5));
#167=DIRECTION('',(7.971401E-14,6.123032E-17,1.0));
#168=DIRECTION('',(-1.0,0.0,7.971401E-14));
#169=SURFACE_STYLE_FILL_AREA(#252);
#170=ORIENTED_EDGE('',*,*,#253,.T.);
#171=ORIENTED_EDGE('',*,*,#246,.T.);
#172=ORIENTED_EDGE('',*,*,#254,.F.);
#173=ORIENTED_EDGE('',*,*,#251,.F.);
#174=CARTESIAN_POINT('',(-2.7500000000008,-2.75,-9.99999999999978));
#175=DIRECTION('',(-7.971401E-14,-6.123032E-17,-1.0));
#176=DIRECTION('',(4.8809143407832E-30,-1.0,6.123032E-17));
#177=SURFACE_STYLE_FILL_AREA(#255);
#178=ORIENTED_EDGE('',*,*,#248,.T.);
#179=ORIENTED_EDGE('',*,*,#254,.T.);
#180=ORIENTED_EDGE('',*,*,#245,.T.);
#181=ORIENTED_EDGE('',*,*,#256,.F.);
#182=CARTESIAN_POINT('',(-9.16711115E-13,-7.0414868E-16,-11.5));
#183=DIRECTION('',(7.971401E-14,6.123032E-17,1.0));
#184=DIRECTION('',(-1.0,0.0,7.971401E-14));
#185=SURFACE_STYLE_FILL_AREA(#257);
#186=ORIENTED_EDGE('',*,*,#243,.T.);
#187=ORIENTED_EDGE('',*,*,#253,.F.);
#188=ORIENTED_EDGE('',*,*,#250,.T.);
#189=ORIENTED_EDGE('',*,*,#258,.T.);
#190=CARTESIAN_POINT('',(-9.16711115E-13,-7.0414868E-16,-11.5));
#191=DIRECTION('',(7.971401E-14,6.123032E-17,1.0));
#192=DIRECTION('',(1.0,0.0,-7.971401E-14));
#193=SURFACE_STYLE_FILL_AREA(#259);
#194=ORIENTED_EDGE('',*,*,#260,.T.);
#195=ORIENTED_EDGE('',*,*,#261,.F.);
#196=ORIENTED_EDGE('',*,*,#244,.F.);
#197=ORIENTED_EDGE('',*,*,#258,.F.);
#198=ORIENTED_EDGE('',*,*,#262,.T.);
#199=CARTESIAN_POINT('',(1.2953526625E-12,9.949927E-16,16.25));
#200=DIRECTION('',(7.971401E-14,6.123032E-17,1.0));
#201=DIRECTION('',(-4.8809143407832E-30,1.0,-6.123032E-17));
#202=SURFACE_STYLE_FILL_AREA(#263);
#203=ORIENTED_EDGE('',*,*,#249,.T.);
#204=ORIENTED_EDGE('',*,*,#256,.T.);
#205=ORIENTED_EDGE('',*,*,#261,.T.);
#206=ORIENTED_EDGE('',*,*,#264,.F.);
#207=ORIENTED_EDGE('',*,*,#262,.F.);
#208=CARTESIAN_POINT('',(1.2953526625E-12,9.949927E-16,16.25));
#209=DIRECTION('',(7.971401E-14,6.123032E-17,1.0));
#210=DIRECTION('',(-4.8809143407832E-30,1.0,-6.123032E-17));
#211=SURFACE_STYLE_FILL_AREA(#265);
#212=ORIENTED_EDGE('',*,*,#266,.T.);
#213=ORIENTED_EDGE('',*,*,#267,.F.);
#214=ORIENTED_EDGE('',*,*,#264,.T.);
#215=ORIENTED_EDGE('',*,*,#260,.F.);
#216=CARTESIAN_POINT('',(-11.0,-11.0,8.7752764352E-13));
#217=DIRECTION('',(-7.971401E-14,-6.123032E-17,-1.0));
#218=DIRECTION('',(4.8809143407832E-30,-1.0,6.123032E-17));
#219=SURFACE_STYLE_FILL_AREA(#268);
#220=ORIENTED_EDGE('',*,*,#267,.T.);
#221=ORIENTED_EDGE('',*,*,#269,.T.);
#222=ORIENTED_EDGE('',*,*,#270,.F.);
#223=ORIENTED_EDGE('',*,*,#271,.F.);
#224=CARTESIAN_POINT('',(1.2953526625E-12,9.949927E-16,16.25));
#225=DIRECTION('',(7.971401E-14,6.123032E-17,1.0));
#226=DIRECTION('',(-4.8809143407832E-30,1.0,-6.123032E-17));
#227=SURFACE_STYLE_FILL_AREA(#272);
#228=ORIENTED_EDGE('',*,*,#273,.T.);
#229=ORIENTED_EDGE('',*,*,#269,.F.);
#230=ORIENTED_EDGE('',*,*,#266,.F.);
#231=ORIENTED_EDGE('',*,*,#271,.T.);
#232=CARTESIAN_POINT('',(1.2953526625E-12,9.949927E-16,16.25));
#233=DIRECTION('',(7.971401E-14,6.123032E-17,1.0));
#234=DIRECTION('',(-4.8809143407832E-30,1.0,-6.123032E-17));
#235=SURFACE_STYLE_FILL_AREA(#274);
#236=ORIENTED_EDGE('',*,*,#273,.F.);
#237=ORIENTED_EDGE('',*,*,#270,.T.);
#238=CARTESIAN_POINT('',(-10.9999999999988,-11.0,15.0000000000009));
#239=DIRECTION('',(-7.971401E-14,-6.123032E-17,-1.0));
#240=DIRECTION('',(4.8809143407832E-30,-1.0,6.123032E-17));
#241=SURFACE_STYLE_FILL_AREA(#275);
#242=FILL_AREA_STYLE('',(#276));
#243=EDGE_CURVE('',#277,#278,#279,.T.);
#244=EDGE_CURVE('',#277,#280,#281,.T.);
#245=EDGE_CURVE('',#282,#280,#283,.T.);
#246=EDGE_CURVE('',#278,#282,#284,.T.);
#247=FILL_AREA_STYLE('',(#285));
#248=EDGE_CURVE('',#286,#287,#288,.T.);
#249=EDGE_CURVE('',#289,#286,#290,.T.);
#250=EDGE_CURVE('',#291,#289,#292,.T.);
#251=EDGE_CURVE('',#291,#287,#293,.T.);
#252=FILL_AREA_STYLE('',(#294));
#253=EDGE_CURVE('',#291,#278,#295,.T.);
#254=EDGE_CURVE('',#287,#282,#296,.T.);
#255=FILL_AREA_STYLE('',(#297));
#256=EDGE_CURVE('',#286,#280,#298,.T.);
#257=FILL_AREA_STYLE('',(#299));
#258=EDGE_CURVE('',#289,#277,#300,.T.);
#259=FILL_AREA_STYLE('',(#301));
#260=EDGE_CURVE('',#302,#303,#304,.T.);
#261=EDGE_CURVE('',#280,#303,#305,.T.);
#262=EDGE_CURVE('',#289,#302,#306,.T.);
#263=FILL_AREA_STYLE('',(#307));
#264=EDGE_CURVE('',#302,#303,#308,.T.);
#265=FILL_AREA_STYLE('',(#309));
#266=EDGE_CURVE('',#310,#311,#312,.T.);
#267=EDGE_CURVE('',#310,#311,#313,.T.);
#268=FILL_AREA_STYLE('',(#314));
#269=EDGE_CURVE('',#311,#315,#316,.T.);
#270=EDGE_CURVE('',#317,#315,#318,.T.);
#271=EDGE_CURVE('',#310,#317,#319,.T.);
#272=FILL_AREA_STYLE('',(#320));
#273=EDGE_CURVE('',#317,#315,#321,.T.);
#274=FILL_AREA_STYLE('',(#322));
#275=FILL_AREA_STYLE('',(#323));
#276=FILL_AREA_STYLE_COLOUR('',#324);
#277=VERTEX_POINT('',#325);
#278=VERTEX_POINT('',#326);
#279=LINE('',#327,#328);
#280=VERTEX_POINT('',#329);
#281=CIRCLE('',#330,3.0);
#282=VERTEX_POINT('',#331);
#283=LINE('',#332,#333);
#284=CIRCLE('',#334,2.5);
#285=FILL_AREA_STYLE_COLOUR('',#335);
#286=VERTEX_POINT('',#336);
#287=VERTEX_POINT('',#337);
#288=LINE('',#338,#339);
#289=VERTEX_POINT('',#340);
#290=CIRCLE('',#341,3.0);
#291=VERTEX_POINT('',#342);
#292=LINE('',#343,#344);
#293=CIRCLE('',#345,2.5);
#294=FILL_AREA_STYLE_COLOUR('',#346);
#295=CIRCLE('',#347,2.5);
#296=CIRCLE('',#348,2.5);
#297=FILL_AREA_STYLE_COLOUR('',#349);
#298=CIRCLE('',#350,3.0);
#299=FILL_AREA_STYLE_COLOUR('',#351);
#300=CIRCLE('',#352,3.0);
#301=FILL_AREA_STYLE_COLOUR('',#353);
#302=VERTEX_POINT('',#354);
#303=VERTEX_POINT('',#355);
#304=CIRCLE('',#356,3.0);
#305=LINE('',#357,#358);
#306=LINE('',#359,#360);
#307=FILL_AREA_STYLE_COLOUR('',#361);
#308=CIRCLE('',#362,3.0);
#309=FILL_AREA_STYLE_COLOUR('',#363);
#310=VERTEX_POINT('',#364);
#311=VERTEX_POINT('',#365);
#312=CIRCLE('',#366,10.0);
#313=CIRCLE('',#367,10.0);
#314=FILL_AREA_STYLE_COLOUR('',#368);
#315=VERTEX_POINT('',#369);
#316=LINE('',#370,#371);
#317=VERTEX_POINT('',#372);
#318=CIRCLE('',#373,10.0);
#319=LINE('',#374,#375);
#320=FILL_AREA_STYLE_COLOUR('',#376);
#321=CIRCLE('',#377,10.0);
#322=FILL_AREA_STYLE_COLOUR('',#378);
#323=FILL_AREA_STYLE_COLOUR('',#379);
#324=COLOUR_RGB('',0.509803950786591,0.509803950786591,0.588235318660736);
#325=CARTESIAN_POINT('',(-3.00000000000076,-2.1430614E-16,-9.49999999999976));
#326=CARTESIAN_POINT('',(-2.5000000000008,-3.061516E-16,-9.9999999999998));
#327=CARTESIAN_POINT('',(-3.00000000000076,-2.1430614E-16,-9.49999999999976));
#328=VECTOR('',#380,0.707106781186548);
#329=CARTESIAN_POINT('',(-7.57283095E-13,3.0,-9.5));
#330=AXIS2_PLACEMENT_3D('',#381,#382,#383);
#331=CARTESIAN_POINT('',(-7.971401E-13,2.5,-10.0));
#332=CARTESIAN_POINT('',(-7.971401E-13,2.5,-10.0));
#333=VECTOR('',#384,0.707106781186548);
#334=AXIS2_PLACEMENT_3D('',#385,#386,#387);
#335=COLOUR_RGB('',0.509803950786591,0.509803950786591,0.588235318660736);
#336=CARTESIAN_POINT('',(2.99999999999924,-9.4906994E-16,-9.50000000000024));
#337=CARTESIAN_POINT('',(2.4999999999992,-9.184548E-16,-10.0000000000002));
#338=CARTESIAN_POINT('',(2.99999999999924,-9.4906994E-16,-9.50000000000024));
#339=VECTOR('',#388,0.707106781186548);
#340=CARTESIAN_POINT('',(-7.57283095E-13,-3.0,-9.5));
#341=AXIS2_PLACEMENT_3D('',#389,#390,#391);
#342=CARTESIAN_POINT('',(-7.971401E-13,-2.5,-10.0));
#343=CARTESIAN_POINT('',(-7.971401E-13,-2.5,-10.0));
#344=VECTOR('',#392,0.707106781186548);
#345=AXIS2_PLACEMENT_3D('',#393,#394,#395);
#346=COLOUR_RGB('',0.509803950786591,0.509803950786591,0.588235318660736);
#347=AXIS2_PLACEMENT_3D('',#396,#397,#398);
#348=AXIS2_PLACEMENT_3D('',#399,#400,#401);
#349=COLOUR_RGB('',0.509803950786591,0.509803950786591,0.588235318660736);
#350=AXIS2_PLACEMENT_3D('',#402,#403,#404);
#351=COLOUR_RGB('',0.509803950786591,0.509803950786591,0.588235318660736);
#352=AXIS2_PLACEMENT_3D('',#405,#406,#407);
#353=COLOUR_RGB('',0.509803950786591,0.509803950786591,0.588235318660736);
#354=CARTESIAN_POINT('',(1.46427430223496E-29,-3.0,1.8369096E-16));
#355=CARTESIAN_POINT('',(-1.46427430223496E-29,3.0,-1.8369096E-16));
#356=AXIS2_PLACEMENT_3D('',#408,#409,#410);
#357=CARTESIAN_POINT('',(-7.57283095E-13,3.0,-9.5));
#358=VECTOR('',#411,9.5);
#359=CARTESIAN_POINT('',(-7.57283095E-13,-3.0,-9.5));
#360=VECTOR('',#412,9.5);
#361=COLOUR_RGB('',0.509803950786591,0.509803950786591,0.588235318660736);
#362=AXIS2_PLACEMENT_3D('',#413,#414,#415);
#363=COLOUR_RGB('',0.509803950786591,0.509803950786591,0.588235318660736);
#364=CARTESIAN_POINT('',(4.8809143407832E-29,-10.0,6.123032E-16));
#365=CARTESIAN_POINT('',(-4.8809143407832E-29,10.0,-6.123032E-16));
#366=AXIS2_PLACEMENT_3D('',#416,#417,#418);
#367=AXIS2_PLACEMENT_3D('',#419,#420,#421);
#368=COLOUR_RGB('',0.509803950786591,0.509803950786591,0.588235318660736);
#369=CARTESIAN_POINT('',(1.19571015E-12,10.0,15.0));
#370=CARTESIAN_POINT('',(-4.8809143407832E-29,10.0,-6.123032E-16));
#371=VECTOR('',#422,15.0);
#372=CARTESIAN_POINT('',(1.19571015E-12,-10.0,15.0));
#373=AXIS2_PLACEMENT_3D('',#423,#424,#425);
#374=CARTESIAN_POINT('',(4.8809143407832E-29,-10.0,6.123032E-16));
#375=VECTOR('',#426,15.0);
#376=COLOUR_RGB('',0.509803950786591,0.509803950786591,0.588235318660736);
#377=AXIS2_PLACEMENT_3D('',#427,#428,#429);
#378=COLOUR_RGB('',0.509803950786591,0.509803950786591,0.588235318660736);
#379=COLOUR_RGB('',0.509803950786591,0.509803950786591,0.588235318660736);
#380=DIRECTION('',(0.707106781186491,-1.29889124486222E-16,-0.707106781186604));
#381=CARTESIAN_POINT('',(-7.57283095E-13,-5.8168804E-16,-9.5));
#382=DIRECTION('',(-7.971401E-14,-6.123032E-17,-1.0));
#383=DIRECTION('',(4.8809143407832E-30,-1.0,6.123032E-17));
#384=DIRECTION('',(5.63663170265723E-14,0.707106781186548,0.707106781186548));
#385=CARTESIAN_POINT('',(-7.971401E-13,-6.123032E-16,-10.0));
#386=DIRECTION('',(-7.971401E-14,-6.123032E-17,-1.0));
#387=DIRECTION('',(4.8809143407832E-30,-1.0,6.123032E-17));
#388=DIRECTION('',(-0.707106781186604,4.32963755137778E-17,-0.707106781186491));
#389=CARTESIAN_POINT('',(-7.57283095E-13,-5.8168804E-16,-9.5));
#390=DIRECTION('',(7.971401E-14,6.123032E-17,1.0));
#391=DIRECTION('',(4.8809143407832E-30,-1.0,6.123032E-17));
#392=DIRECTION('',(5.63663170265723E-14,-0.707106781186548,0.707106781186548));
#393=CARTESIAN_POINT('',(-7.971401E-13,-6.123032E-16,-10.0));
#394=DIRECTION('',(7.971401E-14,6.123032E-17,1.0));
#395=DIRECTION('',(4.8809143407832E-30,-1.0,6.123032E-17));
#396=CARTESIAN_POINT('',(-7.971401E-13,-6.123032E-16,-10.0));
#397=DIRECTION('',(-7.971401E-14,-6.123032E-17,-1.0));
#398=DIRECTION('',(4.8809143407832E-30,-1.0,6.123032E-17));
#399=CARTESIAN_POINT('',(-7.971401E-13,-6.123032E-16,-10.0));
#400=DIRECTION('',(7.971401E-14,6.123032E-17,1.0));
#401=DIRECTION('',(4.8809143407832E-30,-1.0,6.123032E-17));
#402=CARTESIAN_POINT('',(-7.57283095E-13,-5.8168804E-16,-9.5));
#403=DIRECTION('',(7.971401E-14,6.123032E-17,1.0));
#404=DIRECTION('',(4.8809143407832E-30,-1.0,6.123032E-17));
#405=CARTESIAN_POINT('',(-7.57283095E-13,-5.8168804E-16,-9.5));
#406=DIRECTION('',(-7.971401E-14,-6.123032E-17,-1.0));
#407=DIRECTION('',(4.8809143407832E-30,-1.0,6.123032E-17));
#408=CARTESIAN_POINT('',(0.0,0.0,0.0));
#409=DIRECTION('',(-7.971401E-14,-6.123032E-17,-1.0));
#410=DIRECTION('',(4.8809143407832E-30,-1.0,6.123032E-17));
#411=DIRECTION('',(7.971401E-14,6.123032E-17,1.0));
#412=DIRECTION('',(7.971401E-14,6.123032E-17,1.0));
#413=CARTESIAN_POINT('',(0.0,0.0,0.0));
#414=DIRECTION('',(7.971401E-14,6.123032E-17,1.0));
#415=DIRECTION('',(4.8809143407832E-30,-1.0,6.123032E-17));
#416=CARTESIAN_POINT('',(0.0,0.0,0.0));
#417=DIRECTION('',(-7.971401E-14,-6.123032E-17,-1.0));
#418=DIRECTION('',(4.8809143407832E-30,-1.0,6.123032E-17));
#419=CARTESIAN_POINT('',(0.0,0.0,0.0));
#420=DIRECTION('',(7.971401E-14,6.123032E-17,1.0));
#421=DIRECTION('',(4.8809143407832E-30,-1.0,6.123032E-17));
#422=DIRECTION('',(7.971401E-14,6.123032E-17,1.0));
#423=CARTESIAN_POINT('',(1.19571015E-12,9.184548E-16,15.0));
#424=DIRECTION('',(7.971401E-14,6.123032E-17,1.0));
#425=DIRECTION('',(4.8809143407832E-30,-1.0,6.123032E-17));
#426=DIRECTION('',(7.971401E-14,6.123032E-17,1.0));
#427=CARTESIAN_POINT('',(1.19571015E-12,9.184548E-16,15.0));
#428=DIRECTION('',(-7.971401E-14,-6.123032E-17,-1.0));
#429=DIRECTION('',(4.8809143407832E-30,-1.0,6.123032E-17));
ENDSEC;
END-ISO-10303-21;
